Song name
# A B C D E F G H I J K L M N O P Q R S T U V W X Y Z

Rammstein - Roter Sand tab

This Is my first Tab plz comment it ;-)

Tabbed by: Planxty
Email: 11121@gmx.net

Date: Tue, 20 Oct 2009
Song: Roter Sand
Artist: Rammstein
Album: "Liebe ist fuer alle da"

Listen to the song for timeing!


intro / wheezed intro
e ee cis e ee cis  d cis d e d cis a    x2

E|-----------------------------------------------------|
B|-----------------------------------------------------|
G|-----------------------------------------------------|
D|-2---2-2--------2---2-2------------------------------|
A|----------4--------------4----5--4--5--7---5--4--0---|
E|-----------------------------------------------------|




Strophe:
1.
E|-------------------------|
B|-------------------------|
G|-------0-----------3-----|
D|---------2-------2-------|
A|----2----------2---------|
E|--0----------0-----------|


Eine Liebe, ein Versprechen
Sagt, ich komm zurueck zu dir
Nun ich muss es leider brechen,
Seine Kugel steckt in mir
Eine liebe, zwei Pistolen

2.
E|-------------------------------|
B|-------------------------------|
G|--------0----------------0-----|
D|----------2----------------2---|
A|-----2----------------2--------|
E|--3-----------------2----------|

Eine zielt mir ins Gesicht.

1.
Er sagt, ich haette dich gestohlen,
2.
Dass du mich liebst weiss er nicht.


Chorus (unsure if guitar there... more strings or somthing ;-) )

G
Roter Sand und zwei Patronen
A
Eine stirbt im Pulverkuss.
G
Die Zweite soll ihr Ziel nicht schonen,
A		G
Steckt jetzt tief in meiner Brust.

1.
Eine Liebe, ein Versprechen
Ach das Blut laeuft aus dem Mund
Und keiner wird mich raechen,
Sinnlos gehe ich zu Grund.
Eine Liebe, zwei Pistolen
2.
Einer konnte schneller zielen
1.
Nun ich bin es nicht gewesen,
2.
Jetzt gehoerst du ihm.


Play Intro

(Zwischenspiel / interlude)

e - D - C

E|--------------------2-----------|
B|---------0--------3--------1----|
G|----------------2--------0------|
D|------2-------0--------2--------|
A|----2----------------3----------|
E|--0-----------------------------|

(3x Chorus)

Roter Sand und zwei Patronen
Eine stirbt im Pulverkuss.
Die Zweite soll ihr Ziel nicht schonen,
Steckt jetzt tief in meiner Brust.

Roter Sand und weisse Tauben
Laben sich an meinem Blut.
Am Ende gibt es doch ein Ende,
Bin ich doch zu etwas gut.

Roter Sand und zwei Patronen
Eine stirbt im Pulverkuss.
Die Zweite soll ihr Ziel nicht schonen,
Steckt jetzt tief in meiner Brust.
Tap to rate this tab
# A B C D E F G H I J K L M N O P Q R S T U V W X Y Z