Song name
# A B C D E F G H I J K L M N O P Q R S T U V W X Y Z

Rammstein - Moskau tab

Help us improve GuitareTab! Take a short survey!
Band: Rammstein
Album: Reise, Reise
Song: Moskau
Tuning: CGCFAD

 Intro
D|----------------------------------------|
A|----------------------------------------|
F|----------------------------------------|
C|----------------------------------------|
G|----------------------------------------|
C|--8--/10--\4-----/8--/10--\4---/11-\10--|

D|----------------------------------------|
A|----------------------------------------|
F|----------------------------------------|
C|----------------------------------------|
G|----------------------------------------|
C|--8--/10--\4-----/8--\6--\4-------------|

Backing guitars
[ With WAH ]
D|-----------------------------------------|
A|-----------------------------------------|
F|*---------------------------------------*|
C|*-8---x---8---x---x---8---x---x---8---x-*|x13
G|-----------------------------------------|
C|-----------------------------------------|
pm      .       .   .       .   .       .

D|---------------------------------------------|
A|---------------------------------------------|
F|---------------------------------------------|
C|--10---x---10---x---x---10---x---x---10---x--|x1
G|---------------------------------------------|
C|---------------------------------------------|
pm       .        .   .        .   .        .

D|---------------------------------------------|
A|---------------------------------------------|
F|*-11---x---11---x---x---11---x---x---11---x-*|
C|*-------------------------------------------*|x2
G|---------------------------------------------|
C|---------------------------------------------|
pm       .        .   .        .   .        .


1st Chorus
D|----------------------------------------|
A|----------------------------------------|
F|----------------------------------------|
C|----------------------------------------|
G|----------------------------------------|
C|--8--/10--\4-----/8--/10--\4---/11-\10--|

Backing guitars
[ With WAH ]
D|-----------------------------------------|
A|-----------------------------------------|
F|*---------------------------------------*|
C|*-8---x---8---x---x---8---x---x---8---x-*|x8
G|-----------------------------------------|
C|-----------------------------------------|
pm      .       .   .       .   .       .


2nd Chorus is the same as the intro


Rhythm behind accordion solo
D|----------------------------------------|
A|----------------------------------------|
F|----------------------------------------|
C|----------------------------------------|
G|----------------------------------------|
C|--8--/10--\4-----/8--/10--\4---/11-\10--|

D|----------------------------------------|
A|----------------------------------------|
F|----------------------------------------|
C|----------------------------------------|
G|----------------------------------------|
C|--8--/10--\4-----/8--\6--\4-------------|

Backing guitars
[ With WAH ]
D|-----------------------------------------|
A|-----------------------------------------|
F|*----------------------------------------|
C|*-8---x---8---x---x---8---x---x---8---x--|
G|-----------------------------------------|
C|-----------------------------------------|
pm      .       .   .       .   .       .

D|---------------------------------------------|
A|---------------------------------------------|
F|---------------------------------------------|
C|--10---x---10---x---x---10---x---x---10---x--|
G|---------------------------------------------|
C|---------------------------------------------|
pm       .        .   .        .   .        .

D|-----------------------------------------|
A|-----------------------------------------|
F|*----------------------------------------|
C|*-4---x---4---x---x---4---x---x---4---x--|
G|-----------------------------------------|
C|-----------------------------------------|
pm      .       .   .       .   .       .

D|-----------------------------------------|
A|-----------------------------------------|
F|*----------------------------------------|
C|*-8---x---8---x---x---8---x---x---8---x--|
G|-----------------------------------------|
C|-----------------------------------------|
pm      .       .   .       .   .       .

D|---------------------------------------------|
A|---------------------------------------------|
F|---------------------------------------------|
C|--10---x---10---x---x---10---x---x---10---x--|
G|---------------------------------------------|
C|---------------------------------------------|
pm       .        .   .        .   .        .

D|---------------------------------------------|
A|---------------------------------------------|
F|--------------------------------------------*|
C|--11---x---11---x---x---11---x---x---11---x-*|x2
G|---------------------------------------------|
C|---------------------------------------------|
pm       .        .   .        .   .        .

Play all of this 2 times


Bridge (02.37)
D|------------------|
A|------------------|
F|------------------|
C|------------------|
G|------------------|
C|--\2--/9--\8--\3--|


Paul's lead (02.53)
D|-----------------------------------------|
A|-----------------------------------------|
F|*---------------------------------------*|
C|*-8---8---8---8---8---8---8---8---8---8-*|x16
G|-----------------------------------------|
C|-----------------------------------------|
pm      .       .   .       .   .       .


Last chorus
D|-------------------------------------------|
A|-------------------------------------------|
F|*------------------------------------------|
C|*------------------------------------------|
G|-------------------------------------------|
C|--8--/10--/11--/13--\8--/10--/11--/16-\15--|

D|-------------------------------------------|
A|-------------------------------------------|
F|------------------------------------------*|
C|------------------------------------------*|x2
G|-------------------------------------------|
C|--8--/10--/11--/13-/15-\8--\6--\4----------|

Backing guitars
[ With WAH ]
D|-------------------------------------------|
A|-------------------------------------------|
F|*-----------------------------------------*|
C|*-8---x---8---x---x---8---x---x---8---x---*|x32
G|-------------------------------------------|
C|-------------------------------------------|
pm      .       .   .       .   .       .


End
D|-----|
A|-----|
F|-----|
C|-----|
G|-----|
C|--8--|


PM. = Palm Mute
H = Harmonics
P = Pull off
B = Bend
R = Realase
X = Break
/ = Slide upp
\ = Slide down
Related for Moskau tab