Song name
# A B C D E F G H I J K L M N O P Q R S T U V W X Y Z

Ramones - I Just Want To Have Something To Do tab

Intro
    D#m        C#      B          C#
e------------------|-------------------|
B------------------|-------------------|
G---8-8-8-8-8--6---|---4-4-4-4-4--6----|
D---8-8-8-8-8--6---|---4-4-4-4-4--6----|  x3
A---6-6-6-6-6--4---|---2-2-2-2-2--4----|
E------------------|-------------------|

Verse
    D#m               C#      B
e-------------------|-------------------|
B-------------------|-------------------|
G---8-8-8-8-8-8-8-8-|-6-6-6-6-4-4-4-4---|
D---8-8-8-8-8-8-8-8-|-6-6-6-6-4-4-4-4---|  x3
A---6-6-6-6-6-6-6-6-|-4-4-4-4-2-2-2-2---|
E-------------------|-------------------|

    D#m
e-------------------|-------------------|
B-------------------|-------------------|
G---8-8-8-8-8-8-8-8-|-8-8-8-8-8-8-8-8---|
D---8-8-8-8-8-8-8-8-|-8-8-8-8-8-8-8-8---|
A---6-6-6-6-6-6-6-6-|-6-6-6-6-6-6-6-6---|
E-------------------|-------------------|


Chorus
    B                 C#
e-------------------|-------------------|
B-------------------|-------------------|
G---4-4-4-4-4-4-4-4-|-6-6-6-6-6-6-6-6---|
D---4-4-4-4-4-4-4-4-|-6-6-6-6-6-6-6-6---|
A---2-2-2-2-2-2-2-2-|-4-4-4-4-4-4-4-4---|
E-------------------|-------------------|
                                           x3
    D#m
e-------------------|-------------------|
B-------------------|-------------------|
G---8-8-8-8-8-8-8-8-|-8-8-8-8-8-8-8-8---|
D---8-8-8-8-8-8-8-8-|-8-8-8-8-8-8-8-8---|
A---6-6-6-6-6-6-6-6-|-6-6-6-6-6-6-6-6---|
E-------------------|-------------------|

    B                 C#
e-------------------|-------------------|
B-------------------|-------------------|
G---4-4-4-4-4-4-4-4-|-6-6-6-6-6-6-6-6---|
D---4-4-4-4-4-4-4-4-|-6-6-6-6-6-6-6-6---|
A---2-2-2-2-2-2-2-2-|-4-4-4-4-4-4-4-4---|
E-------------------|-------------------|

    D#m
e-------------------|
B-------------------|
G---8-8-8-8-8-8-8-8-|
D---8-8-8-8-8-8-8-8-|
A---6-6-6-6-6-6-6-6-|
E-------------------|

    D#m        C#       B          C#
e-------------------|------------------|
B-------------------|------------------|
G---8-8-8-8-8--6----|---4-4-4-4-4--6---|
D---8-8-8-8-8--6----|---4-4-4-4-4--6---|  x3
A---6-6-6-6-6--4----|---2-2-2-2-2--4---|
E-------------------|------------------|


Verse
    D#m               C#      B
e-------------------|-------------------|
B-------------------|-------------------|
G---8-8-8-8-8-8-8-8-|-6-6-6-6-4-4-4-4---|
D---8-8-8-8-8-8-8-8-|-6-6-6-6-4-4-4-4---|  x3
A---6-6-6-6-6-6-6-6-|-4-4-4-4-2-2-2-2---|
E-------------------|-------------------|

    D#m
e-------------------|-------------------|
B-------------------|-------------------|
G---8-8-8-8-8-8-8-8-|-8-8-8-8-8-8-8-8---|
D---8-8-8-8-8-8-8-8-|-8-8-8-8-8-8-8-8---|
A---6-6-6-6-6-6-6-6-|-6-6-6-6-6-6-6-6---|
E-------------------|-------------------|


Chorus
    B                 C#
e-------------------|-------------------|
B-------------------|-------------------|
G---4-4-4-4-4-4-4-4-|-6-6-6-6-6-6-6-6---|
D---4-4-4-4-4-4-4-4-|-6-6-6-6-6-6-6-6---|
A---2-2-2-2-2-2-2-2-|-4-4-4-4-4-4-4-4---|
E-------------------|-------------------|
                                           x3
    D#m
e-------------------|-------------------|
B-------------------|-------------------|
G---8-8-8-8-8-8-8-8-|-8-8-8-8-8-8-8-8---|
D---8-8-8-8-8-8-8-8-|-8-8-8-8-8-8-8-8---|
A---6-6-6-6-6-6-6-6-|-6-6-6-6-6-6-6-6---|
E-------------------|-------------------|

    B                 C#
e-------------------|-------------------|
B-------------------|-------------------|
G---4-4-4-4-4-4-4-4-|-6-6-6-6-6-6-6-6---|
D---4-4-4-4-4-4-4-4-|-6-6-6-6-6-6-6-6---|
A---2-2-2-2-2-2-2-2-|-4-4-4-4-4-4-4-4---|
E-------------------|-------------------|

    D#m
e-------------------|
B-------------------|
G---8-8-8-8-8-8-8-8-|
D---8-8-8-8-8-8-8-8-|
A---6-6-6-6-6-6-6-6-|
E-------------------|

    D#m        C#       B          C#
e-------------------|------------------|
B-------------------|------------------|
G---8-8-8-8-8--6----|---4-4-4-4-4--6---|
D---8-8-8-8-8--6----|---4-4-4-4-4--6---|  x3
A---6-6-6-6-6--4----|---2-2-2-2-2--4---|
E-------------------|------------------|

Verse
    D#m               C#      B
e-------------------|-------------------|
B-------------------|-------------------|
G---8-8-8-8-8-8-8-8-|-6-6-6-6-4-4-4-4---|
D---8-8-8-8-8-8-8-8-|-6-6-6-6-4-4-4-4---|  x3
A---6-6-6-6-6-6-6-6-|-4-4-4-4-2-2-2-2---|
E-------------------|-------------------|

    D#m
e-------------------|-------------------|
B-------------------|-------------------|
G---8-8-8-8-8-8-8-8-|-8-8-8-8-8-8-8-8---|
D---8-8-8-8-8-8-8-8-|-8-8-8-8-8-8-8-8---|
A---6-6-6-6-6-6-6-6-|-6-6-6-6-6-6-6-6---|
E-------------------|-------------------|


Chorus & Outro
    B                 C#
e-------------------|-------------------|
B-------------------|-------------------|
G---4-4-4-4-4-4-4-4-|-6-6-6-6-6-6-6-6---|
D---4-4-4-4-4-4-4-4-|-6-6-6-6-6-6-6-6---|
A---2-2-2-2-2-2-2-2-|-4-4-4-4-4-4-4-4---|
E-------------------|-------------------|
    D#m                                    Repeat as needed
e-------------------|-------------------|
B-------------------|-------------------|
G---8-8-8-8-8-8-8-8-|-8-8-8-8-8-8-8-8---|
D---8-8-8-8-8-8-8-8-|-8-8-8-8-8-8-8-8---|
A---6-6-6-6-6-6-6-6-|-6-6-6-6-6-6-6-6---|
E-------------------|-------------------|

End on D#m


I labeled the tab with the actual chords as opposed to the power chords, it makes for a 
acoustic song!
Tap to rate this tab
# A B C D E F G H I J K L M N O P Q R S T U V W X Y Z