Guitaretab - guitar tabs
Song name
# A B C D E F G H I J K L M N O P Q R S T U V W X Y Z
Home / R / Rancid / Memphis tab

Rancid - Memphis tab

Standard Tuning
Guitar 1 - Clean, brassy tone
Guitar 2 - Smooth, distorted guitar, layered with synth
Guitar 3 - Clean, glassy guitar
Guitars 4&5 - Crunchy, ballsy distortion, with variations between them
Guitar 6 - Clean, brassy tone with a lot of reverb

Intro A (Guitar 1)
--------------------------------------------------|
--------------------------------------------------|
----4-4-ring------------------------------0-----0-|
----5-5-ring--3---2-0-ring------------------------|
-5--------------------------2---------4h5---4h5---|
-------------------------------3-ring-------------|

Intro B (Guitar 2&4)
G.2
--------------------------------------------------|
--------------------------------------------------|
--------------------------------------------------|
-----2--0-----------------------------------------|
--3--------3-ring----0-3-0---------353535353ring--|
-------------------3---------3--------------------|

G.4
-------------------------| x4
-------------------------|
-5----5-5------5---5-5---|
-5----5-5------5---5-5-5-|
-3----3-3------3---3-3-5-|
-----------------------3-|

Verse A (Guitar 3)
-8-------------------8------------------|
-8----------10-------8----------10------|
-9----------10-------9----------10------|
-10---------10-------10---------10------|
-10---------10-------10---------10------|
-8-------------------8------------------|

Verse B (Guitar 3, 4 & 5)
G.3
-8-------------------8------------------|
-8----------10-------8----------10------|
-9----------10-------9----------10------|
-10---------10-------10---------10------|
-10---------10-------10---------10------|
-8-------------------8------------------|

G.4
-8-------------------8-------------------|
-8----------10-------8----------10-------|
-9----------10-------9----------10-------|
-10---------10-------10---------10-/////-|
-10---------10-------10---------10-/////-|
-8-------------------8-------------/////-|
                                    PCK
G. 5
----------------------|
------------(as G.4)--|
-Rest-until-----------|
---------------//////-|
---------------//////-|
----------------------|
                 PCK

Chorus (Guitars 4&5)
------------------------------------------------------------------------|
----------55555555-66666666---------------------------------------------|
-55555555-44444444-55555555-55555555------------------------------------|
-55555555-22222222-33333333-55555555-77777777-55555555-5=55555555555555-|
-33333333-------------------33333333-77777777-55555555-5=55555555555555-|
-------------------------------------55555555-33333333-2/33333333333333-|

[ Tab from: http://www.guitaretab.com/r/rancid/130215.html ]
Bridge Part 1 (Guitars 2 &4)
G.2                                                         |---3--------|
-------------------------------------------------------------------------|
-------------------------------------------------------------------------|
-------------------------------------------------------------------------|
---5---7--10-12-10-7--10/12/10--10-12-14-17----14-12-10-10-7-10-12-10/7~-|
-3-----------------------------------------------------------------------|
-------------------------------------------------------------------------|

G.4
-------------------------| x4
-------------------------|
-5----5-5------5---5-5---|
-5----5-5------5---5-5-5-|
-3----3-3------3---3-3-5-|
-----------------------3-|

Bridge Part 2 (Guitars 4&5)

G.4
-----------------------------------------------|
-----------------------------------------------|
-10--------8--------6--------55555555-44444444-|
-10-ring---9-ring---5-ring---55555555-55555555-|
-8---------7--------5--------33333333-22222222-|
--------------------3--------------------------|
 *Make sure you change chords when G.5 does*

G.5
-----------------------------------------------|
-----------------------------------------------|
-----------------------------55555555-xx444444-|
-3---------2---------5-------55555555-xx555555-|
-3-x16-----2-x16-----5-x16---33333333-xx222222-|
-1---------0---------3-------------------------|


Guitar Solo A(Guitars 4&6)
G.6
-------------------------------------------------|
-------------------------------------------------|
----------------------------333/55555555555553---|
-------------------------55-------------------5--|
-2/333-2/333-2/333-2/333-------------------------|
-------------------------------------------------|
G.4
-------------------------| x2
-------------------------|
-5----5-5------5---5-5---|
-5----5-5------5---5-5-5-|
-3----3-3------3---3-3-5-|
-----------------------3-|

Guitar Solo B (Guitars 6&4)
G.6
-------------------------------------------------|
-------------------------------------------------|
----------------------------333/55555555555553---|
-------------------------55-------------------55-|
-2/333-2/333-2/333-2/333-------------------------|
-------------------------------------------------|

G.4
-------------------------| x2
-------------------------|
-5----5-5------5---5-5---|
-5----5-5------5---5-5-5-|
-3----3-3------3---3-3-5-|
-----------------------3-|

Out (Guitars 2, 4&5)

G.2
--------------------------------------------------------------------------|
--------------------------------------------------------------------------|
--------------------------------------------------------------------------|
----10-17-ring-14-12-10\7/10-ring-10h12p10-10\7/10-ring-7-10-7/10-10-9-10-|
--------------------------------------------------------------------------|
--------------------------------------------------------------------------|

G.4&5
-------------------------| x4
-------------------------|
-5----5-5------5---5-5---|
-5----5-5------5---5-5-5-|
-3----3-3------3---3-3-5-|
-----------------------3-|

Then
G.4&5
--------|
--------|
-5-4-4\-|
-5-5-5\-|
-3-2-3\-|
--------|

Order:

Intro A
Intro B
Verse A
Verse B
Chorus x2
Verse A
Verse B
Chorus x2
Bridge Part 1
Bridge Part 2 x2
Guitar Solo A
Guitar Solo B
Verse A
Verse B
Chorus x2
Out
Related for Memphis tab
Advertisement will be closed in 10 seconds