Song name
# A B C D E F G H I J K L M N O P Q R S T U V W X Y Z

Rancid - La Bamba tab

La Bamba

Here is the tab 4 this song. ENJOY!!!!!!!!!!!!
Standard tuning.

Intro

|---------------------------------------------------------------|
|---------------------------------------------------------------|
|---------------------------------------------------------------|
|-------------5---7-5-------8-8-7-5-----5---7-5-------8-8-7-5---|
|-------2-3-7---8-------2-5---------3-7---8-------2-5-----------|
|---3-5---------------3-------------------------3---------------|

Verse 1

|--------------------------------------|
|--------------------------------------|
|---5555555----------------------------|
|---5555555-3333333-5555555-33333333---|
|---3333333-3333333-5555555-33333333---|
|-----------1111111-3333333-11111111---|

Chorus

|--------------------------------------|
|--------------------------------------|
|---5555555----------------------------|
|---5555555-3333333-5555555-33333333---|
|---3333333-3333333-5555555-33333333---|
|-----------1111111-3333333-11111111---|

Interlude

|---------------------------------------------------------------|
|---------------------------------------------------------------|
|---------------------------------------------------------------|
|-------------5---7-5-------8-8-7-5-----5---7-5-------8-8-7-5---|
|-------2-3-7---8-------2-5---------3-7---8-------2-5-----------|
|---3-5---------------3-------------------------3---------------|

Verse 2

|--------------------------------------|
|--------------------------------------|
|---5555555----------------------------|
|---5555555-3333333-5555555-33333333---|
|---3333333-3333333-5555555-33333333---|
|-----------1111111-3333333-11111111---|

Chorus

|--------------------------------------|
|--------------------------------------|
|---5555555----------------------------|
|---5555555-3333333-5555555-33333333---|
|---3333333-3333333-5555555-33333333---|
|-----------1111111-3333333-11111111---|

That's it. ENJOY!!!!!!!!!!!!!!!!!!
Tap to rate this tab
# A B C D E F G H I J K L M N O P Q R S T U V W X Y Z