Song name
# A B C D E F G H I J K L M N O P Q R S T U V W X Y Z

Real Estate - Its Real tab

Here's It's Real by Real Estate. Great Song. Fun and easy to play! I've also included 
chords at the bottom!


Main Riff
e|-7-5----------7-5---------5|-7-5------------------------------|
B|-----7-5----------7--5-7---|-----7-5--------7-5---------------|
G|---------7--4--------------|---------7--4-7-------------------|
D|---------------------------|----------------------------------|
A|---------------------------|----------------------------------|
E|---------------------------|----------------------------------|

Bridge Riff (2:00)
e|-----5-7----5-----5-7-5~~~-------------------------------------|
B|-5-7------7---5-7----------------------------------------------|
G|---------------------------------------------------------------|
D|---------------------------------------------------------------|
A|---------------------------------------------------------------|
E|---------------------------------------------------------------|

Outro:
e|-7-5-----------------------------------------------------------|
B|-----7-5-------------------------------------------------------|
G|---------7-----------------------------------------------------|
D|---------------------------------------------------------------|
A|---------------------------------------------------------------|
E|---------------------------------------------------------------|

Verse Chords:
(D, Bmin, D)

D              Bmin
I don't know who's behind
D

The wheel
D                                          Bmin

Sometimes I feel like I don't know

D
The deal
D                       Bmin

When I tell you how

D
I feel

D                           Bmin
Believe me when I say

D
It's real

Chorus

D                 Bmin           D

Oh whoa whoa whoa oh oh

D                 Bmin           D
Oh whoa whoa whoa oh oh

A
It's real

Bridge/Instrumental:
D, Bmin

Outro:
D, Bmin, D



I'm not too sure on the Instrumental chords, so if there's a problem, just let me know!
Tap to rate this tab
 
# A B C D E F G H I J K L M N O P Q R S T U V W X Y Z