Song name
# A B C D E F G H I J K L M N O P Q R S T U V W X Y Z

Rebelution - Bump tab

Rebelution - Bump

by Hector Barrera Villa Zevallos
Cheuken (el finito) Valdez

Normal tuning

Change the effects according to the song (Wah, delay, etc.)

Intro

0:02

Am                                                           G           Em

-----8-7-8--8-7-5---8-7-8---8-7-8---8-7-8---8-7-8---8-7-8-10-7~~-7-8-7-5-------5-7----------|
--5----------------------------------------------------------------------8---8-----8--------|
--------------------------------------------------------------------------------------------|
--------------------------------------------------------------------------------------------|
--------------------------------------------------------------------------------------------|
--------------------------------------------------------------------------------------------|

0:14

Am                                                           G           Em

-----8-7-8--8-7-5---8-7-8---8-7-8---8-7-8---8-7-8---8-7-8-10-7~~-7-8-7-5-------5-7----------|
--5----------------------------------------------------------------------8---8-----8--------|
--------------------------------------------------------------------------------------------|
--------------------------------------------------------------------------------------------|
--------------------------------------------------------------------------------------------|
--------------------------------------------------------------------------------------------|

Am
So hear me now while allowed, its a good time, to tell you when to smile, not to frown, 
you are all shot down


G                                    Em
and you might ask how, Time flies by and you just found out, You are almost to the point

Am
where you cant turn back, Youve got a leveled head on a one-way track, Dont tell me theres an

G                                     Em
end to a road, Your goal set on hold, Dont think that you can go alone Okay

Am
But keep me up to date, I promise you Ill never lose the faith when you get up, go on escape, to a

   G                                      Em
scary world, The old cliche is true, You do what you got to do, Im trying to put out something new,

         Am
Im always at the edge of my seat, constantly containing that kinetic energy, constantly Im

G                                                         Em
reigning in the sweet melody, Im humming tunes to sleep, Watch me hit the peak and Ill stay up for


1:17

Am                                                                             G
good This is what Ill say to you,                  This is my advice for you,

5---------------------------------5-7-8-----------------------------------------3------------|
---------------------------------------------------------------------------------3-----------|
----------------------------------------------------------------------------------4----------|
-----------------------------------------------------------------------------------5---------|
------------------------------------------------------------------------------------5--------|
-------------------------------------------------------------------------------------x-------|


G                                          Em
Show me love and Ill come through, this is what it comes down to wo yeah


1:30

Am                                                                                G
This is what Ill say to you,                        This is my advice for you,

5----------------------------5-7-8-----------------------------------------------------------|
---------------------------------------------------------------------------------------------|
---------------------------------------------------------------------------------------------|
----------------------------------------------------------------------------------5----------|
----------------------------------------------------------------------------------5----------|
----------------------------------------------------------------------------------3----------|

G
Show me love and Ill come through This is what it comes down to       wo yeah

---------------------------------------------------------------------------------------------|
------------------------------------------------------------------------5--------------------|
-----------------------------------------------------4---------5-----------------------------|
-------------------------------------------7-------------------------------------------------|
---------------------------------------------------------------------------------------------|
---------------------------------------------------------------------------------------------|

1:43

Am                                                           G           Em

-----8-7-8--8-7-5---8-7-8---8-7-8---8-7-8---8-7-8---8-7-8-10-7~~-7-8-7-5-------5-7-----------|
--5----------------------------------------------------------------------8---8-----8---------|
---------------------------------------------------------------------------------------------|
---------------------------------------------------------------------------------------------|
---------------------------------------------------------------------------------------------|
---------------------------------------------------------------------------------------------|


1:56

Am                                                           G              Em

-----8-7-8--8-7-5---8-7-8---8-7-8---8-7-8---8-7-8---8-7-8-8/12-10~~-7-8-7-5-------5-7--------|
--5-------------------------------------------------------------------------8---8-----8------|
---------------------------------------------------------------------------------------------|
---------------------------------------------------------------------------------------------|
---------------------------------------------------------------------------------------------|
---------------------------------------------------------------------------------------------|


Am
Ill be shouting with my hands in the air, I dont care what they say, stop the hate,


G                                                                       Em
Ill replace it with my eyes focused in on a place, designed to keep a peace and refrain 
race killing race, oh my god,

Am
did you hear? The time it takes for me to make a difference is a near, And Im going to 
on trying because there

G                                                 Em
aint nothing I fear, On the real, hide the tears, Well keep it flowing with a beat right here,

2:34

Am                                                                          G
This is what Ill say to you,                  This is my advice for you,

5-----------------------------5-7-8-----------------------------------------3----------------|
-----------------------------------------------------------------------------3---------------|
------------------------------------------------------------------------------4--------------|
-------------------------------------------------------------------------------5-------------|
--------------------------------------------------------------------------------5------------|
---------------------------------------------------------------------------------x-----------|

G                                          Em
Show me love and Ill come through This is what it comes down to wo yeah

2:46

Am                                                                                G
This is what Ill say to you,                        This is my advice for you,

5----------------------------5-7-8-----------------------------------------------------------|
---------------------------------------------------------------------------------------------|
---------------------------------------------------------------------------------------------|
----------------------------------------------------------------------------------5----------|
----------------------------------------------------------------------------------5----------|
----------------------------------------------------------------------------------3----------|

G
Show me love and Ill come through, this is what it comes down to       wo yeah

---------------------------------------------------------------------------------------------|
------------------------------------------------------------------------5--------------------|
-----------------------------------------------------4---------5-----------------------------|
-------------------------------------------7-------------------------------------------------|
---------------------------------------------------------------------------------------------|
---------------------------------------------------------------------------------------------|

SOLO


2:59

-----8-7-8--8-7-5---5-5-7-8---7-8-8/10---8-10-10/12---12-10-8-7----------------------------|
--5----------------------------------------------------------------------------------------|
-------------------------------------------------------------------------------------------|
-------------------------------------------------------------------------------------------|
-------------------------------------------------------------------------------------------|
-------------------------------------------------------------------------------------------|

--7h8p7-5-------7h8p7-5-----7h8p7-5------7h8p7-------------17-15----17b18------------------|
----------8-------------8-----------8----------8-10--------------17------------------------|
-------------------------------------------------------------------------------------------|
-------------------------------------------------------------------------------------------|
-------------------------------------------------------------------------------------------|
-------------------------------------------------------------------------------------------|

--17-15------------------------------------15-17-------------------------------------------|
--------17--15h17-17--17p15----------15-17-------------------------------------------------|
----------------------------17-14-17-------------------------------------------------------|
-------------------------------------------------------------------------------------------|
-------------------------------------------------------------------------------------------|
-------------------------------------------------------------------------------------------|

--15-17-19-20-----20------20----20-19-----20-19----20-19----20-19----20-19-----------------|
---------------17------17----17-------17--------17-------17-------17-------17--------------|
-------------------------------------------------------------------------------------------|
-------------------------------------------------------------------------------------------|
-------------------------------------------------------------------------------------------|
-------------------------------------------------------------------------------------------|

-------------------------------------------------------------------------------------------|
---18-20---17-18---17-15-17---15-13-15---13-12---15-13-12-13-12----13-12----13-12-13-12----|
----------------------------------------------------------------14-------14-------------14-|
-------------------------------------------------------------------------------------------|
-------------------------------------------------------------------------------------------|
-------------------------------------------------------------------------------------------|

-------------------------------------------------------------------------------------------|
--13-12----13-12-13-12----13-12----13-12-13-12----13-12----13-12---------------------------|
--------14-------------14-------14-------------14-------14---------------------------------|
-------------------------------------------------------------------------------------------|
-------------------------------------------------------------------------------------------|
-------------------------------------------------------------------------------------------|


---------------------------------------------------------------------------------------------|
--13-12----13-12----13-12-13-12----13-12----13-15-17-15-----17-15-----17-15-----17-17-20-17--|
--------12-------12-------------12-------12-------------17--------17--------17---------------|
---------------------------------------------------------------------------------------------|
---------------------------------------------------------------------------------------------|
---------------------------------------------------------------------------------------------|


--20-19-19---------20-19-19---------20-19-19---------20-19-19------------------------------|
-----------20-17------------20-17------------20-17------------20-17------------------------|
-------------------------------------------------------------------------------------------|
-------------------------------------------------------------------------------------------|
-------------------------------------------------------------------------------------------|
-------------------------------------------------------------------------------------------|

-21b22-20-19-17-15-13-12---15-13-12-10-8-7-------------------------------------------------|
-------------------------------------------------------------------------------------------|
-------------------------------------------------------------------------------------------|
-------------------------------------------------------------------------------------------|
-------------------------------------------------------------------------------------------|
-------------------------------------------------------------------------------------------|


------8----------8----------8----------8-------8----------8----------8----------8----------|
--------10---------10---------10-----------------10---------10---------------10------------|
--7h9--------7h9--------7h9--------7h9-----7h9--------7h9--------7h9-----7h9---------------|
-------------------------------------------------------------------------------------------|
-------------------------------------------------------------------------------------------|
-------------------------------------------------------------------------------------------|


-12b13-12b13-10-------|
----------------13-10-|
----------------------|
----------------------|
----------------------|
----------------------|

3:55

---17-----------------|
------17--------------|
---------17-16--------|
----------------------|
----------------------|
----------------------|

4:01

----------------------|
----------------------|
---19--16---19-17-----|
----------------------|
----------------------|
----------------------|


4:04

----------------------|
----------------------|
----------------------|
----17----------------|
-------17-------------|
----------------------|

4:07

------------------------|
------------------------|
------------------------|
----17------------17----|
-------17-15--14-----17-|
------------------------|

4:15


------------------------------------------------|
------------------------------------------------|
-14--14-14--17--17-17--16--16-16--14-14----14---|
----------------------------------------17------| x 4
------------------------------------------------|
------------------------------------------------|


------------------------------------------------|
------------------------------------------------|
------------17--17-17--16--16-16--14-14----14---|
-17--17-17------------------------------17------| x 4
------------------------------------------------|
------------------------------------------------|


------------------------------------------------|
---------------------------------15--15-15------|
-14--14-14--17--17-17--16--16-16----------------|
------------------------------------------------| x 1
------------------------------------------------|
------------------------------------------------|


---------------------------------15--15-15------|
------------------------------------------------|
-14--14-14--17--17-17--16--16-16----------------|
------------------------------------------------| x 1
------------------------------------------------|
------------------------------------------------|


------------------------------------------------|
---------------------------------15--15-15------|
-14--14-14--17--17-17--16--16-16----------------|
------------------------------------------------| x 1
------------------------------------------------|
------------------------------------------------|


----------------------------------------------------|
----------------------------------------------------|
-14--14-14--17--17-17--16--16-16--14-14-------------|
----------------------------------------------------| x 1
----------------------------------------------------|
----------------------------------------------------|


-----------------------------------------------------------|
-----------------------------------------------------------|
-14-14-12--14-14-12--14-14-12--14-14-12--14-14-15-15-15----|..
-----------------------------------------------------------|
-----------------------------------------------------------|
-----------------------------------------------------------|

4:41

Am                                                           G           Em

-----8-7-8--8-7-5---8-7-8---8-7-8---8-7-8---8-7-8---8-7-8-10-7~~-7-8-7-5-------5-7----------|
--5----------------------------------------------------------------------8---8-----8--------|
--------------------------------------------------------------------------------------------|
--------------------------------------------------------------------------------------------|
--------------------------------------------------------------------------------------------|
--------------------------------------------------------------------------------------------|


4:54

Am                                                           G           Em

-----8-7-8--8-7-5---8-7-8---8-7-8---8-7-8---8-7-8---8-7-8-8/12b13---7-8-7-5-------5-7-------|
--5-------------------------------------------------------------------------8---8-----8-----|
--------------------------------------------------------------------------------------------|
--------------------------------------------------------------------------------------------|
--------------------------------------------------------------------------------------------|
--------------------------------------------------------------------------------------------|


5:06


---------------|
---------------|
---------------|
--7------------| x 8
--7------------|
--5------------|


5:08

---------------------------|
---------------------------|
------5---7p9--7p9r7-5-----|
--5h7---7--------------7---|
---------------------------|
---------------------------|

5:10


---------------|
---------------|
---------------|
--7------------| x 8
--7------------|
--5------------|


5:12

---------------------------|
---------------------------|
------5---7b9--7b9r7-5-4---|
--5h7---7------------------|
---------------------------|
---------------------------|


5:13


---------------|
---------------|
---------------|
--5------------| x 8
--5------------|
--3------------|

5:14

---------------------------|
---------------------------|
------5-------5------------|
--------7-------7----------|
---5h7----5h7--------------|
---------------------------|


5:16


---------------|
---------------|
---------------|
--5------------| x 8
--5------------|
--3------------|


Symbols

\ = slide down
h = hammer on
p = Pull off
b = bend
r = return from bend
/ = slide up


Comments, corrections, etc., to hectorbarrerav@hotmail.com


Desde que lei PAPEL REVOLUCION empece a escuchar a Beth Gibbons (Esta madre no tiene acentos).
Uoraleeeeeeeeeeeeeeeeeee...
Tap to rate this tab
 
# A B C D E F G H I J K L M N O P Q R S T U V W X Y Z