Song name
# A B C D E F G H I J K L M N O P Q R S T U V W X Y Z

Rebelution - Moonlight tab

Intro is strumming around on Asus2. Something like this

e-------0-----------------------------------------|
b-----0-----3-2-------0-------0-------------------|
g---2------------2------2---2---2---2--RepeatX6---|
d-2-----------------------2-------2---------------|
a-------------------------------------------------|
E-------------------------------------------------|

e----------------------|
b-------2-3---3-2------|
g-2-4-------------4-2--|
d----------------------|
a----------------------|
E----------------------|




A               D           F#m       ...(E)
We've been lost out here for days

D                    A        E       F#m
Don't Worry we'll be fine if we just wait

E                   D           (A)           F#m    ....(E)
Lets try to relate, in our own world we'll be okay

A                D             F#m              ....(E)
The clock ticks faster on these days

D                     A        E            F#m
And ticking tocks the way, Can love thrash hate?

E                   D           (A)            F#m   .... (E)
Lets try to relate, in a bright world we'll be okay

(Asus2 strumming)
We'll be under the moonlight, dancing away like

A                       D
two silhouettes in the sand, what a sight

         F#m          A or Asus2            E
Can you see? Can you see me? Or is this a dream?

Asus2 strumming again until solo.


Solo - I copied this from the other tab because I thought it was pretty well done. Some 
minor changes can be made by ear if needed otherwise it should do.


e-------------------------------------------------------------------------|
b--------------------------------------------------10-10-10--12b-12b14r10-|
g-----------------------------6-6-6-9-9-9-11-11-11------------------------|
d-----------------7-7-7-9-9-9---------------------------------------------|
a--9-9-9-11-11-11---------------------------------------------------------|
E-------------------------------------------------------------------------|

e-------------------10----10-12---10-12-14--14-14-14--17--------|
b-12-10----10-12-14----14---------------------------------15-14-|
g---------------------------------------------------------------|
d---------------------------------------------------------------|
a---------------------------------------------------------------|
E---------------------------------------------------------------|

e--9/10--12---9------------10-12----10----10-12-14--14-14-14-16-17-|
b-10/12--14--10------10-14-------14----10--------------------------|
g------------------------------------------------------------------|
d------------------------------------------------------------------|
a------------------------------------------------------------------|
E------------------------------------------------------------------|

e-16h17-16-------17----------9/10--12---9---------------------|
b----------17-15----15-14---10/12--14--10---------------------|
g-------------------------------------------------------------|
d-------------------------------------------------------------|
a-------------------------------------------------------------|
E-------------------------------------------------------------|

Outro/End of Solo:

e-------------------------------------------------------------|
b-----2-3-2-------------2-2-----3-2-0-------------------------|
g-2-4-------4-2---------2-2-----------2-----2-----------------|
d---------------2h4-2---2-2-------------4-2-------------------|
a-------------------------------------------------------------|
E-------------------------------------------------------------|


This is my first tab but be critical let me know what you think.
Tap to rate this tab
# A B C D E F G H I J K L M N O P Q R S T U V W X Y Z