Song name
# A B C D E F G H I J K L M N O P Q R S T U V W X Y Z

Reckless Kelly - Wicked Twisted Road tab

capo:2
em,c,g - in that order

e-----------------------------3-----------|
b-----0-------------------------0---0-----|
g-------0---0-----0-----0---------0-------|
d---------2-----2---0^2-------------------|
a---2---------3-------------2-------------|
e-0-----------------------3-----------3-2-|


e-----0-----------------------3-----------|
b-------0---0-------------------0---0-----|
g---------0-------0-----0---------0-------|
d---------------2---0^2-------------------|
a---2---------3-------------2-------------|
e-0-----------------------3-----------3-2-|

this is my first one so i know its not exactly right but it sounds close enough. let me know how it is.
Tap to rate this tab
# A B C D E F G H I J K L M N O P Q R S T U V W X Y Z