Song name
# A B C D E F G H I J K L M N O P Q R S T U V W X Y Z

Reckless Love - Hot tab

Hot - Reckless Love

Standard tuning


Theres no guitar in the intro but the bass play: A, F, C, G x2


[Chorus]

  Yeah.. it's getting...
E--------------------------------|
B--------------------------------|
G---2--2----------5--5-----------|
D---2--2---3--3---5--5---5--5----|
A---0--0---3--3---3--3---5--5----|
E----------1--1----------3--3----|


[Verse]

Its a time of year I got my toes in sand 
E---------------------------------------|
B---------------------------------------|
G--2-2-2-2-----------5-5-5-5------------|
D--2-2-2-2--3-3-3-3--5-5-5-5--5-5-5-5---|
A--0-0-0-0--3-3-3-3--3-3-3-3--5-5-5-5---|
E-----------1-1-1-1-----------3-3-3-3---|

and the sun is here got drink i my hand
E---------------------------------------|
B---------------------------------------|
G--2-2-2-2-----------5-5-5-5------------|
D--2-2-2-2--3-3-3-3--5-5-5-5--5-5-5-5---|
A--0-0-0-0--3-3-3-3--3-3-3-3--5-5-5-5---|
E-----------1-1-1-1-----------3-3-3-3---|

[Bridge]
(in between the second verse and third chorus at 01:12)

You dont know you dont know....
E-------------------------------------|
B-------------------------------------|
G-------------------------------------|
D------2-----3---3------5-----5---5---|
A--0-0---0-0---0----3-3---3-3---3-----|
E-------------------------------------| x3

then:
E------------------------|
B------------------------|
G------------------------|
D------2-----3---3-------|
A--0-0---0-0---0---------|
E------------------------|

[Solo Rythm Guitar]

E-----------------------------|
B-----------------------------|
G-----------------------------|
D---7----7/----7--7--7--7/----|
A---7----7/----7--7--7--7/----|
E---5----5/----5--5--5--5/----| x4

[Second Bridge]

theres no guitar in the second bridge until the end 
but the synthesizer play the chords: A, F, C, G x4


/ - Slide down and release the chord
Tap to rate this tab
 
# A B C D E F G H I J K L M N O P Q R S T U V W X Y Z