Song name
# A B C D E F G H I J K L M N O P Q R S T U V W X Y Z

Redlight King - Something For The Pain tab

TUNING: ACOUSTIC-STANDARD
        ELECTRIC 1-STANDARD
        ELECTRIC 3-DROP D



 INTRO
  ACOUSTIC
E|--------------------------------------------------|
B|--------------------------------------------------|
G|--------------------------------------------------|
D|--------------------------------------------------|<-(PLAYED THROUGHOUT
A|--------------------------------------------------|  SONG)
E|--3-3-3-3-3-3-3-3-8-8-8-8-6-6-6-6-6-6-6-6-1-1-1-1-|
    . . . . . . . . . . . . . . . . . . . . . . . .

CHORUS

  ELECTRIC 2
E|---------|
B|---------|
G|---------|
D|-1-----3-|  pause then play it again
A|-1-----3-|
D|-1-----3-|

POST
  ELECTRIC 1
E|--------------|
B|--------------|
G|--------------|
D|--------------| X3
A|-5h6r5h6r5----|
E|----------8-6-|
  ELECTRIC 2
E|------|
B|----6-|
G|-5-7--|
D|------|
A|------|
D|------|


PLAY INTRO

  ELECTRIC 2
E|---------------|
B|---6-8-------6-|
G|-7-------5-7---|
D|---------------|  x2
A|---------------|
D|---------------|

SLIDES INTO CHORUS
  ELECTRIC 1
E|-----|
B|-3/6-|
G|-----|
D|-----|
A|-----|
E|-----|


  ELECTRIC 2    ELECTRIC 1
(full strumming
and distortion)
E|---------     ------------|
B|---------     -6\3---3/6--|
G|---------     ------------| X2 AT THE END  ELECTRIC 1 SLIDES 6/3
D|-1-----3-     ------------|
A|-1-----3-     ------------|
D|-1-----3-     ------------|


BRIDGE


ELECTRIC 1
E|----------------|
B|----------------|
G|----------------|
D|----------------| (PLAYS THROUGHOUT BRIDGE)
A|-5h6r5h6r5------|
E|----------8-6---|

ELECTRIC 2
E|-------------------------|
B|-------------------------|
G|-------------------------|
D|-33-1-33-1-33-1-33-11111-|
A|-33-1-33-1-33-1-33-11111-|
D|-33-1-33-1-33-1-33-11111-|

SLIDES INTO CHORUS
  ELECTRIC 1
E|-----|
B|-3/6-|
G|-----|
D|-----|
A|-----|
E|-----|

                                (PLAYS FOR THE REST OF THE SONG)
  ELECTRIC 2    ELECTRIC 1
(full strumming
and distortion)
E|---------     ------------|
B|---------     -6\3---3/6--|
G|---------     ------------| X2 AT THE END OF THE CHORUS
D|-1-----3-     ------------|    ELECTRIC 1 SLIDES 6/3
A|-1-----3-     ------------|
D|-1-----3-     ------------|
Tap to rate this tab
# A B C D E F G H I J K L M N O P Q R S T U V W X Y Z