Song name
# A B C D E F G H I J K L M N O P Q R S T U V W X Y Z

Relient K - Between You And Me tab

Intro:

G  Em7  Ebmaj7  F
    
e|------------------------------------|
B|----3--3---3---3--------------------|
G|4-0---0---0---0---------------------|
D|-----4---4---4---3-2-0-3-2--3-2-0-5-|
A|------------------------------------|
E|------------------------------------|

e|------------------------------------------|
B|----3--3---3---3--------------------------|
G|4-0---0---0---0---------------------------|
D|-----4---4---4---3-2-0-3-2--3333333333333-|
A|----------------------------3333333333333-|
E|----------------------------1111111111111-|

Verse:

E(add2)  Bm7  A(add2)  Am7


Prechorus:

e|--------------------------------------------|
B|--------------------------------------------|
G|--------------------------------------------|
D|--------------------------------------------|
A|1/33333333-1/33333333-1/33333333-1/33335555-|
E|--------------------------------------------|


Chorus:

G(add2)  Em9  Ebmaj7  F(add2)
G(add2)  Em9  Ebmaj7  Dm11  C(add2)
G(add2)  Csus2 C(add2)


Verse:

e|2-0---2-0---2-0-------2-0---2-0-2--2-0-----|
B|---0-----0-----0--1------0------------0--1-|
G|-------------------------------------------|
D|-------------------------------------------|
A|-------------------------------------------|
E|-------------------------------------------|


Prechorus
Chorus

Bridge:

e|---3-6-5-1-----------3--------3/6-5-3-1----------3--6-5-6-5-6-3-|
B|1/3--------1--1-2-3----1-3-------------1--1-2-3--------6--------|
G|--------------------------3-------------------------------------|
D|---------------------------3------------------------------------| x 2
A|----------------------------------------------------------------|
E|----------------------------------------------------------------|
Tap to rate this tab
 
# A B C D E F G H I J K L M N O P Q R S T U V W X Y Z