Song name
# A B C D E F G H I J K L M N O P Q R S T U V W X Y Z

Relient K - Savannah tab

Savannah  Relient K - 1st Acoustic Guitar
Tabbed by: James Pratt, jp_iliketomoveit@yahoo.com

Symbols used:
(3 3 3): Triplet
~ : One note trill

Tuning: Db(c#), A, D, G, B, e
Speed: 110 (220 quarters)

                         Intro
e |----------------|----------------|----------------|
B |----------------|----------------|----------------|
G |----------------|----------------|----------------|
D |----------------|----------------|----6----4----6-|
A |----6----8----6-|----6----8----6-|--1----1----1---|
Db|0-7---07---07---|0-7---07---07---|0-----0----0----|

e |----------------|----------------|----------------|
B |----------------|--------------4-|----2---------4-|
G |----------------|------------2---|--2---------2---|
D |----6----4----6-|----4----4------|---------4------|
A |--1----1----1---|--0----0--------|-------0--------|
Db|0-----0----0----|0-----0----0----|0-----0----0----|

e |----------------|----------------|
B |----------------|2---------------|
G |----------------|1---------------|
D |----------------|3---------------|
A |----8----8----8-|4---------------|
Db|0-7---07---07---|0---------------|

                       Verse I (I)
e |----------------|----------------|-------------------------| Savannah,
B |----------------|----------------|-------------------------| I hope to be there by the
G |----------------|----------------|-------------------------| Morning,
D |----------------|----------------|----6----4----6----------| And see this pining all
A |----6----8----6-|----6----8----6-|--1----1----1---| trans--|
Db|0-7---07---07---|0-7---07---07---|0-----0----0-------------|

e |----------------|----------------|----------------| And see this pining all
B |----------------|--------------4-|----2---------4-| transforming
G |----------------|------------2---|--2---------2---| Into the arms of the
D |----6----4----6-|----4----4------|---------4------| Georgia sun.
A |--1----1----1---|--0----0--------|-------0--------|
Db|0-----0----0----|0-----0----0----|0-----0----0----|

e |----------------|----------------|
B |----------------|----------------|
G |----------------|----------------|
D |----------------|----------------|
A |----8----8----8-|----8----8----8-|
Db|0-7---07---07---|0-7---07---07---|

                      Verse I (II)
e |----------------|----------------|----------------| Savannah,
B |----------------|----------------|----------------| I'd love to feel the heat
G |----------------|----------------|--1-------------| the
D |----------------|----------------|--1----4-4x4-4x-| Sunrise, brushing-
A |x-6----8-8x8-8x-|--6----8-8x8-8x-|--1----1-1x1-1x-|
Db|x-7----7-7x7-7x-|--7----7-7x7-7x-|----------------|

e |----------------|----------------|----------------| rays across my windshield
B |----------------|----------------|----------------| As if one, dries,
G |--1-------------|----------------|----------------| The streams from off my
D |--1----4-4x4-4x-|-------4-4x4-4x-|--4----4-4x4-4x-| face.
A |--1----1-1x1-1x-|--0----0-0x0-0x-|--0----0-0x0-0x-|
Db|----------------|----------------|----------------|

e |----------------|----------------|
B |----------------|----------------|
G |----------------|----------------|
D |----------------|----------------|
A |--8----8-8x8-8--|--8----8-8x8-8--|
Db|0-7----7-7x7-7--|0-7----7-7x7-7--|

                      Verse I (III)
e |----------------|----------------|--------------------| Yet I know you'll be there,
B |2--2--2-1--1--1-|----------------|--------------------| Cause you'll know, I'll
G |----------------|3--3--3-1--1--1-|--------------------| want you to
D |----------------|----------------|3--3--3-1--1--1-----| Be there, and we'll say
A |----------------|----------------|--------------------| hello
Db|----------------|----------------|--------------------|

e |----------------|----------------|----------------| As you're smiling in
B |----------------|2--2--2-1--1--1-|----------------| Love and we'll sigh, so
G |----------------|----------------|3--3--3-1--1--1-| relieved,
D |----------------|----------------|----------------| I believe, because
A |4--4--4-3--3--3-|----------------|----------------|
Db|----------------|----------------|----------------|

e |----------------|----------------|                  We will both know by
B |----------------|----------------|                  tonight,
G |----------------|----------------|                  We'll feel normal again.
D |3--3--3-1--1--1-|----------------|
A |----------------|4--4--4-3--3--3-|
Db|----------------|----------------|

                    Verse I (Buildup)
e |----------------|----------------|----------------|
B |----------------|----------------|----------------|
G |----------------|----------------|----------------| But until then,
D |----------------|----------------|----------------|
A |--9-8--9-8--9-8-|--9-8--9-8--9-8-|----8----8----8-|
Db|7-----7----7----|7-----7----7----|0-7---07---07---|

e |1---------------|
B |2---------------|
G |1---------------|
D |3---------------|
A |4---------------|
Db|0---------------|

                      Chorus I (I)
e |----------------|----------------|----------------| Savannah,
B |----------------|----------------|----------------| Our backs supported by a
G |----------------|----------------|1-1-111---------| Hammock,
D |----------------|----------------|1-1-1114-44-4444|
A |6-6-6668-88-8888|6-6-6668-88-8888|1-1-1111-11-1111|
Db|7-7-7777-77-7777|7-7-7777-77-7777|----------------|

e |----------------|----------------|----------------| We sum perfection like a
B |----------------|----------------|----------------| Handbook,
G |1-1-111---------|----------------|----------------| And God knows it all too
D |1-1-1114-44-4444|4-4-4444-44-4444|4-4-4444-44-4444| well.
A |1-1-1111-11-1111|0-0-0000-00-0000|0-0-0000-00-0000|
Db|----------------|----------------|----------------|

e |----------------|----------------|----------------|
B |----------------|----------------|----------------|
G |----------------|----------------|----------------| Savannah,
D |----------------|----------------|----------------|
A |8-8-8888-88-8888|8-8-8888-88-8888|6-6-6668-88-8888|
Db|0-0-0000-00-0000|0-0-0000-00-0000|7-7-7777-77-7777|

e |----------------|----------------|-----------------------------| We'll take a walk to find
B |----------------|----------------|-----------------------------| the
G |----------------|1-1-111---------|1-1-111----------------------| Gift shop,
D |----------------|1-1-1114-44-4444|1-1-1114-44-4444-------------| Who would've thought the
A |6-6-6668-88-8888|1-1-1111-11-1111|1-1-1111-11-1111| book that--|
Db|7-7-7777-77-7777|----------------|-----------------------------|

e |----------------|----------------|----------------| you bought,
B |----------------|----------------|----------------| Would never come off the
G |----------------|----------------|----------------| shelf.
D |4-4-4444-44-4444|4-4-4444-44-4444|----------------|
A |0-0-0000-00-0000|0-0-0000-00-0000|8-8-8888-88-8888|
Db|----------------|----------------|0-0-0000-00-0000|

e |----------------|
B |----------------|
G |----------------|
D |----------------|
A |8-8-8888-88-8888|
Db|0-0-0000-00-0000|

                      Chorus I (II)
e |13~~~~~~11~~~~~~|----------------|--------------------| Yet I'll know you'll be
B |----------------|14~~~~~~13~~~~~~|14~~~~~~13----------|~~~~| there cause
G |----------------|----------------|--------------------| You'll know, I'll want you
D |----------------|----------------|--------------------| to
A |----------------|----------------|--------------------| Be there, and we'll say
Db|----------------|----------------|--------------------| hello

e |----------------|13~~~~~~11~~~~~~|----------------| As you're smiling in
B |11~~~~~~--------|----------------|14~~~~~~13~~~~~~| Love and we'll sigh, so
G |--------13~~~~~~|----------------|----------------| relieved
D |----------------|----------------|----------------| I believe because
A |----------------|----------------|----------------|
Db|----------------|----------------|----------------|

e |----------------|----------------|                  We will both know by
B |14~~~~~~13~~~~~~|11~~~~~~--------|                  Tonight, we'll feel normal-
G |----------------|--------13~~~~~~|
D |----------------|----------------|
A |----------------|----------------|
Db|----------------|----------------|

                        Breakdown
e |----------------|----------------|----------------| again,
B |----------------|----------------|----------------| Mmmbut until
G |----------------|----------------|----------------| then,
D |----------------|----------------|----------------|
A |--9-8--9-8--9-8-|--9-8--9-8--9-8-|----8----8----8-|
Db|7-----7----7----|7-----7----7----|0-7---07---07---|

e |----------------|----------------|----------------|
B |----------------|----------------|----------------| Until then,
G |----------------|----------------|----------------| Mmmbut until-
D |----------------|----------------|----------------|
A |----8----8----8-|--9-8--9-8--9-8-|--9-8--9-8--9-8-|
Db|0-7---07---07---|7-----7----7----|7-----7----7----|

e |----------------|----------------|                  then.
B |----------------|----------------|
G |----------------|----------------|
D |----------------|----------------|
A |----8----8----8-|----8-----------|
Db|0-7---07---07---|0-7---70--------|

                         Bridge
e |----------------|----------------|--6-------------| Baby,
B |----4----6----4-|----4----6----4-|----4--4-6--6-7-|
G |--1----1----1---|--1----1----1---|----------------| I've spent my life
D |----------------|----------------|----------------| wondering,
A |----------------|----------------|----------------|
Db|0-----0----0----|0-----0----0----|5-----5----5----|

e |----------------|----------------|----------------| Wondering when I'd find you
B |--4-6--6-7--6-7-|----6----4----6-|----6----4----6-|
G |----------------|--1----1----1---|--1----1----1---| I've-
D |----------------|----------------|----------------|
A |----------------|----------------|----------------|
Db|5-----5----5----|0-----0----0----|0-----0----0----|

e |----------------|----------------|----------------| Searched for all these
B |----------------|----6----4----6-|----6----4----6-| years and now you're
G |----------------|--1----1----1---|--1----1----1---| Right here.
D |----------------|----------------|----------------| And I-
A |----4(3-1-------|----------------|----------------|
Db|4-5-------7)4-5-|0-----0----0----|0-----0----0----|

e |4-6-------------|----------------|----------------| Need you to know that,
B |----4--4-4--4-4-|--2-1--2-1--1-2-|----------------|
G |----------------|----------------|----------------| Everything makes sense-
D |----------------|----------------|----------------|
A |----------------|----------------|(---3--3)-------|
Db|------5----5----|5---------------|----------------|

e |----------------|----------------|1---------------| When you're with me.
B |----------------|----------------|2---------------|
G |----------------|----------------|1---------------|
D |----------------|----------------|3---------------|
A |(---4--4)-------|----8----8----8-|4---------------|
Db|----------------|0-7---07---07---|0---------------|

                      Chorus II (I)
e |----------------|----------------|----------------| Savannah,
B |----------------|----------------|----------------| Walk out into the sultry
G |----------------|----------------|----------------| Evening,
D |----------------|----------------|----6--6-4--4-4-|
A |--6--6--6-8--8-6|--6-6--6-8--8-6-|--6-------------|
Db|----------------|----------------|----------------|

e |----------------|----------------|----------------| Cotton breathing when the
B |----------------|--------------4-|-4--2--2------4-| Sea winds brush the
G |----------------|------------2---|------------2---| Hair down around your neck.
D |--4-6--6-4--4-4-|-4--4--4-4------|---------4------|
A |----------------|----------------|----------------|
Db|----------------|----------------|----------------|

e |----------------|----------------|
B |-4--------------|----------------|
G |----------------|----------------|
D |----3--3-3--3-3-|-3--3--3-3--3-3-|
A |----------------|----------------|
Db|----------------|----------------|
                     Chorus II (II)
e |----------------|----------------|4~~~~~~~2~~~~~~~| Savannah,
B |4~~~~~~6~~~~~~~~|~~~~~~~~~~~~~~~~|----------------| You hold my hand like it's
G |----------------|----------------|----------------| the
D |----------------|----------------|----------------| First time
A |----------------|----------------|----------------|
Db|----------------|----------------|----------------|

e |~~~~~~~~~~~~~~~~|5~~~~~~~~~~~~~~~|~~~~~~~~4~~~2~~~| And all the feelings that
B |----------------|----------------|----------------| our
G |----------------|----------------|----------------| Hearts find, will be just
D |----------------|----------------|----------------| what we-
A |----------------|----------------|----------------|
Db|----------------|----------------|----------------|

e |1~~~~~~~~~~~~~~~|1---------------|                  Expect.
B |----------------|2---------------|
G |----------------|1---------------|
D |----------------|3---------------|
A |----------------|4---------------|
Db|----------------|0---------------|

                     Chorus II (III)
e |----------------|----------------|-------------------------| Yet I know you'll be there
B |---2-1-1---1-1-1|--2-2-2----2-2-2|---2-2-2---1-1-1---------| cause
G |--1---1-------1-|-----1--------1-|------1---1---1----------| You'll know I'll want you
D |----------------|-------1--------|3-------1----------------| to
A |----------------|1------3--------|4-------3----------------| Be there and we'll say
Db|5-------7-------|----------------|----------------| hello--|

e |---1-1-1---2-2-2|----------------|----------------| As you're smiling in
B |--1---1---1-----|---2---2--12-1-1|---2-2-2---2-2-2| Love and we'll sigh so
G |------------3-3-|--1---1--1----1-|--3---3---1---1-| relieved,
D |----------------|-----4----------|--------1-------| I believe because
A |1---------------|--------7-------|1-------3-------|
Db|--------7-------|5---------------|----------------|

e |----------------|----------------|                  We will both know by
B |--12-1-2---2-2-2|---2-2-2---2-1-1|                  Tonight, we'll feel normal
G |------1---1---1-|--1---2---1---1-|                  again.
D |3-------1-------|----------------|
A |4-------3-------|7-------5-------|
Db|----------------|----------------|

                         Outro
e |----------------|----------------|----------------|
B |----------------|----------------|----------------| But until, then.
G |----------------|----------------|----------------|
D |----------------|----------------|----------------|
A |--9-8--9-8--9-8-|--9-8--9-8--9-8-|----8----8----8-|
Db|7-----7----7----|7-----7----7----|0-7---07---07---|

e |----------------|----------------|----------------|
B |----------------|----------------|----------------| Until, then.
G |----------------|----------------|----------------|
D |----------------|----------------|----------------|
A |----8----8----8-|--9-8--9-8--9-8-|--9-8--9-8--9-8-|
Db|0-7---07---07---|7-----7----7----|7-----7----7----|

e |1---------------|                                   Until, then.
B |2---------------|
G |1---------------|
D |3---------------|
A |4---------------|
Db|0---------------|

   I honestly think it looks messy if I put my notes on the top. Anyways, this song took
than necessary for me to tab, and I'm pretty sure I have it all out right. There are 2
a bass, and of course the background music such as the drums and possibly even a 12 
guitar. I have tabbed the bass down on paper, but have yet to type it out like I have
this one.
   I am currently working on the outro of this song (Baby), and so on. Feel free to
me if you think I may have some parts of this tablature wrong, and I will gladly fix it, if
find it be true. Know that some parts in this song you aren't completely playing 
you hear in the song, because there is another guitar and/or bass in the background.

   Again my email is jp_iliketomoveit@yahoo.com, if ever you need to contact me. Please
spam, I have to put out. Have an awesome time learning these tabs from this amazing
(And you may want to stay tuned in if you want the tabs for 'Candlelight', another one 
their songs...)

-James
Tap to rate this tab
 
# A B C D E F G H I J K L M N O P Q R S T U V W X Y Z