Song name
# A B C D E F G H I J K L M N O P Q R S T U V W X Y Z

Reverend Horton Heat - Marijuana tab

-------------------------------------------------------------------------------
			    Marijuana - Reverend Horton Heat
-------------------------------------------------------------------------------
Tabbed by:The Shetland
Email:peteybombay@yahoo.com
Tuning: Standard

Pretty easy parts here, but they sound cool.  I just noodle around on the break, so it's 
100% accurate, but it's my first tab so don't sue me!


(intro with drums and bass)

let your B string ring out a little then hit and hold an E min chord


e|----------------------------------0-----------------------------------------|
B|---0--00----0--0------------------0-----------------------------------------|
G|----------------------------------0-----------------------------------------|
D|----------------------------------2-----------------------------------------|
A|----------------------------------2-----------------------------------------|
E|----------------(pick slide)------0-----------------------------------------|

e|-------------------------------------------0--------------------------------|
B|-------------------------------------------0--------------------------------|
G|-------------------------------------------0--------------------------------|
D|-------2----------2--0---------------------2--------------------------------|
A|----2----------2---------2--0--2-----------2--------------------------------|
E|-------------------------------------------0--------------------------------|

e|--------------------------------------0-------------------------------------|
B|--------------------------------------0-------------------------------------|
G|------2---------2--0------------------0-------------------------------------|
D|---2---------1--------1-----2---------2-------------------------------------|
A|-------------------------2------------2-------------------------------------|
E|--------------------------------------0-------------------------------------|

e|------------------------------------------------------------0---------------|
B|------------------------------------------------------------0---------------|
G|-----------------2--0-----------------------------------0-------------------|
D|---2----/7----1--------1-------2---------2--2---------2---------------------|
A|---------------------------2------------------------2-----------------------|
E|-----------------------------------0--0--------00---------------------------|


break

e|---/6--6-6-6-----------------/5----5-5-5-----------------------------------|
B|---/6--6-6-6----9----6-------/6----5-5-5-----9---5-------------------------|
G|---/7--7-7-7------------7----/6----6-6-6-------------6---------------------|
D|---------------------------------------------------------------------------|
A|---------------------------------------------------------------------------|
E|---------------------------------------------------------------------------|


e|---/6--6-6-6-----------------/5----5-5-5-----------------------------------|
B|---/6--6-6-6----9----6-------/6----5-5-5-----9---5-------------------------|
G|---/7--7-7-7------------7----/6----6-6-6-------------6---------------------|
D|---------------------------------------------------------------------------|
A|---------------------------------------------------------------------------|
E|---------------------------------------------------------------------------|


e|----/6---6-6-6-------------------/2----/2----2--2--2--2--------------------|
B|----/6---6-6-6---9---6-----------/2----/2----2--2--2--2--------------------|
G|----/7---7-7-7----------7--------/3----/2----3--3--3--3--------------------|
D|---------------------------------------------------------------------------|
A|---------------------------------------------------------------------------|
E|---------------------------------------------------------------------------|

(4 times)

e|--/7-7----/8-8----/10------------------------------------------------------|
B|--/7-7----/8-8----/10------------------------------------------------------|
G|--/8-8----/9-9----/11------------------------------------------------------|
D|---------------------------------------------------------------------------|
A|---------------------------------------------------------------------------|
E|---------------------------------------------------------------------------|

e|---------------------------------------------------------------------------|
B|---------------------------------------------------------------------------|
G|---------------------------------------------------------------------------|
D|-/9-9-----/10-10----/12--------------9-------------------------------------|
A|-/9-9-----/10-10----/12--------------9-------------------------------------|
E|-/7-7-----/8--8-----/10--------------7-------------------------------------|


| /  slide up
| \  slide down
| h  hammer-on
| p  pull-off
| ~  vibrato
| +  harmonic
| x  Mute note
===============================================================================
Tap to rate this tab
 
# A B C D E F G H I J K L M N O P Q R S T U V W X Y Z