Song name
# A B C D E F G H I J K L M N O P Q R S T U V W X Y Z

Reverend Horton Heat - Big Sky tab

~=vibrado
^=bend
h=hammer on
s=slide


  Em                   B7        Em          B7
e-0--------------------2---------0-----------0-|
b-0--------------------0---------0-----------0-|
g-0--------------------2---------0-----------2-|
d-2--4--4h5-4---2p0----1---------2--4-5--4-7-1-|
a-2--------------------2---------2-----------2-|
e-0--------------------0---------0-------------|

e--------------------------------------------------|
b--------------------------------------------------|
g--------------------------------------------------|
d---------2-----4-5-4-2-0------------2---4-5-5s7-4-|
a-3-3-3-2--------------------3-3-3-2---------------|
e--------------------------------------------------|

e---------------------------------7-7-7-7-7----12s-|
b-----------------3-3-3---2-2-2---7-7-7-7-7--------|
g-----------------3-3-3---3-3-3--------------------|
d---------2--4-5--5-5-5---4-4-4--------------------|
a-3-3-3-2------------------------------------------|
e--------------------------------------------------|

             Em
e-0-0-2-0-0---0---0-0-0-2-3-5-2--|
b-0-0-0-0-0---0---0-0-0-0-0-0-0--|
g---------2---0------------------|
d---------1---2------------------|
a---------2---2------------------|
e-------------0------------------|
          

e---3--3--7-5-3--------------------------|
b---0--0--0-0-0--------------------------|
g------------------4--4-0-----3-3-5-3-3--|
d---------------------0-0-----3-3-3-3-3--|
a----------------------------1--------1--|
e-3--------------1-----------------------|


e----------------7-7-7--8-8-8--11-11-11--12-12-12-11~-|
b-4-4-4--5-5-5---7-7-7--8-8-8--12-12-12--13-13-13-12~-|
g-4-4-4--5-5-5----------------------------------------|
d-----------------------------------------------------|
a-----------------------------------------------------|
e-----------------------------------------------------|

Now repeat all thats needed from before,then:

e-----------------------------------------------|
b-----------------------------------------------|
g------------9---11-12-11-9------------------9--|
d-10-10-10-9----------------12----10-10-10-9----|
a-----------------------------------------------|
e-----------------------------------------------|

e-----------------------------------------------------|
b-------10------------------------------11--11--11----|
g-11-12----11-------------9------11-12----12--12--12--|
d--------------10-10-10-9-----------------------------|
a-----------------------------------------------------|
e-----------------------------------------------------|

e-----------------------------------------12s-|
b-11--11--11-----12-12-12----12-12-12-12------|
g---11--11--11---11-11-11-10h11-11-11-11------|
d---------------------------------------------|
a---------------------------------------------|
e---------------------------------------------|

e-12-12-14-12--12---17-17-17-17-17-17-17--|
b-12-12-12-12--12---17-17-17-17-17-17-17--|
g-----------------------------------------|
d-----------------------------------------|
a-----------------------------------------|
e-----------------------------------------|

e-12-12-12-14-15-17-14--15-15-15-15-15-15-15-15--|
b-12-12-12-12-12-12-12--13-13-13-13-13-13-13-13--|
g-----------------------12^12^12^12^12-----------|
d------------------------------------------------|
a------------------------------------------------|
e------------------------------------------------|

e-13-13-13-13-13-13-13--6s0--6-6-6--|
b-11-11-11-11-11-11-11--6s0--6-6-6--|
g-10^10-12^10-12--------------------|
d-----------------------------------|
a-----------------------------------|
e-----------------------------------|

e-14-14-14-15-15-15-14-14-14-15-15-15-14-14-14-15-15-15-15-|
b-14-14-14-15-15-15-14-14-14-15-15-15-14-14-14-15-15-15-15-|
g-14-14-14-15-15-15-------------------14-14-14-15-15-15-15-|
d----------------------------------------------------------|
a----------------------------------------------------------|
e----------------------------------------------------------|

I reckon this part is pretty cool
e-s-12-12-0-0-12-12-0-0-12-12-0-0-12-12-0-0-10-10-0-0--|
b------------------------------------------------------|
g------------------------------------------------------|
d------------------------------------------------------|
a------------------------------------------------------|
e------------------------------------------------------|

e-10-10-0-0-10-10-0-0-15-15-0-0-(repeat1x-then)-12-12-0-0-|
b---------------------------------------------------------|
g---------------------------------------------------------|
d---------------------------------------------------------|
a---------------------------------------------------------|
e---------------------------------------------------------|

e-10-10-0-0-8-8-0-0-7-7-0-0-2h3-3-2h3-3-3-3-|
b-------------------------------------------|
g-------------------------------------------|
d-------------------------------------------|
a-------------------------------------------|
e-------------------------------------------|

e---9--9--9--9-12-12-12-12--14-14-14-14-17--|
b--11-11-11-11-11-11-11-11--16-16-16-16-16--|
g--11-11-11-11-11-11-11-11--16-16-16-16-16--|
d-------------------------------------------|
a-------------------------------------------|
e-------------------------------------------|

e--12-12--14--12-------------------12-12-12-14-15-17-14-|
b--12-12--12--12--10-10--10-10-10--12-12-12-12-12-12-12-|
g--12-12--12--12--8--8---8--8--8---12-12-12-12-12-12-12-|
d-----------------9--9---9--9--9------------------------|
a-------------------------------------------------------|
e-------------------------------------------------------|

e--15-19-17-15--13-17-15-13--6s0s6-6--6--|
b--15-----------13-----------6s0s6-6--6--|
g----------------------------7s0s7-7--7--|
d----------------------------------------|
a----------------------------------------|
e----------------------------------------|


e--7-7-7-8-8-8--15-15-15-16-16-16--19-19-19-20-20-20-19-|
b--7-7-7-8-8-8--17-17-17-18-18-18--20-20-20-21-21-21-20-|
g--8-8-8-9-9-9--17-17-17-18-18-18--19-19-19-20-20-20-19-|
d-------------------------------------------------------|
a-------------------------------------------------------|
e-------------------------------------------------------|

e--------------------------------------------------|
b--------------------------------------------------|
g--------------------------------------------------|
d---------2-----4-5-4-2-0------------2---4-5-5s7-4-|
a-3-3-3-2--------------------3-3-3-2---------------|
e--------------------------------------------------|

e---------------------------------7-7-7-7-7----12s-|
b-----------------3-3-3---2-2-2---7-7-7-7-7--------|
g-----------------3-3-3---3-3-3--------------------|
d---------2--4-5--5-5-5---4-4-4--------------------|
a-3-3-3-2------------------------------------------|
e--------------------------------------------------|

              Em
e-0-0-2-0-0---0---0-0-0-2-3-5-2--|
b-0-0-0-0-0---0---0-0-0-0-0-0-0--|
g---------2---0------------------|
d---------1---2------------------|
a---------2---2------------------|
e-------------0------------------|
                                   A#
e--3-3-3--7-5-3---1--1---1--5-3-1--------------|
b--3-3-3--3-3-3---1--1---1--1-1-1--------------|
g----------------------------------3--3--5--3--|
d----------------------------------3--3--3--3--|
a----------------------------------1--1--1--1--|
e----------------------------------------------|

   B     C    B C
e------------------7-7-7-8-8-8-7--|
b-------------4-5--7-7-7-8-8-8-7--|
g-------------4-5--8-8-8-9-9-9-8--|
d-4-4-4-5-5-5-4-5-----------------|
a-2-2-2-3-3-3-2-3-----------------|
e---------------------------------|

   E  A      E  A      E  A    F#    B
e---------------------------------------|
b---------------------------------------|
g-----2---------2---------2----------4--|
d--2--2------2--2------2--2----4-----4--|
a--2--0------2--0------2--0----4-----2--|
e--0-----2-3-0-----2-3-0-------2--------|*strum as needed

   Em                                  Em
e--0---------------------------------0~--|
b--0---------------------------------0~--|
g--0----------------2--4---14---16---0~--|
d--2---4-5-4--2--0--1--1---13---13---2~--|
a--2----------------2--2---14---14---2~--|
e--0---------------------------------0~--|
  
Ive studyied this transcription pretty well.
email me @ manumick20@yahoo.com to discuss it.
Tap to rate this tab
 
# A B C D E F G H I J K L M N O P Q R S T U V W X Y Z