Song name
# A B C D E F G H I J K L M N O P Q R S T U V W X Y Z

Revolution Mother - Born To Rock N Roll tab

   Artist :Revolution Mother
     Song :Born To Rock N'Roll
           by Dantehard

   Intro/Verse
Eb|--------------------------------------------------------------------------|
Bb|--------------------------------------------------------------------------|
Gb|--------------------------------------------------------------------------|
Db|------------10-1010-10-1010-10-1010-10-1010-5-----------------------------|(x5)
Ab|-------------8--8-8--8--8-8--8--8-8--8--8-8-3-----------------------------|
Db|-0000000000-----0-0-----0-0-----0-0-----0-0-------------------------------|
                   . .     . .     . .     . .

   Chorus
Eb|--------------------------------------------------------------------------|
Bb|--------------------------------------------------------------------------|
Gb|--------------------------------------------------------------------------|
Db|-----------------------1010-----------------------------------------------|(x4)
Ab|------------------------8-8-----------------------------------------------|
Db|-6-0-6-0-6-0-6-0-6-0-6----------------------------------------------------|

   Solo
Eb|--------------------------------------------------------------------------|
Bb|--------------------------------------------------------------------------|
Gb|-------------------------10b-----12-10-12b-12p10-------------10-----------|
Db|-----------10b-----10-12-------------------------12-12-10-12--------------|
Ab|-----10-12----------------------------------------------------------------|
Db|-0-0-----------0-0-----------0-0------------------------------------------|
                                                                              (x2)

Eb|--------------------------------------------------------------------------|
Bb|--------------------------------------------------------------------------|
Gb|--------------------------------12-10-12b-12p10-------------12/1----------|
Db|-----------10b-----12-10-12---------------------12-12-10-12-12/1----------|
Ab|-----10-12----------------------------------------------------------------|
Db|-0-0-----------0-0----------0-0-------------------------------------------|


Eb|-------------------------------------------------------------------------------------|
Bb|-------------------------------------------------------------------------------------|
Gb|-------------------------------------------------------------------------------------|
Db|-8-88888/10-1010101010------------10-1010-10-1010-10------------10-1010-10-1010-10---|(x4)
Ab|-8-88888/10-1010101010-------------8--8-8--8--8-8--8-------------8--8-8--8--8-8--8---|
Db|-8-88888/10-1010101010-0000000000--------------------0000000000----------------------|

   other guitar vibrato
Eb|----------------------------------------------------------------------------|
Bb|----------------------------------------------------------------------------|
Gb|-10~~~----------------------------------------------------------------------|
Db|----------------------------------------------------------------------------|(x4)
Ab|----------------------------------------------------------------------------|
Db|----------------------------------------------------------------------------|
Tap to rate this tab
# A B C D E F G H I J K L M N O P Q R S T U V W X Y Z