Song name
# A B C D E F G H I J K L M N O P Q R S T U V W X Y Z

Rise Against - Whereabouts Unknown tab

|----x-----------------------x--------------------x---x-x----|
|----x-----------------------x---------7----------x---x-x----|
|----x----------11----9-7-9--x ----7-----7-9-7----x---x-x----|   0:03 - 0:13
|----x---9-12-9----12--------7~--7---7---------7--5~--5-5----|
|----7~----------------------5~-------------------3~--3-3----|
|----0~----------------------0~-------------------0~--0-0----|

|----x-----------------------------------------------x-------|
|----x-----------------------------------------------x-------|
|----x----------11----9-7/12-11--11-11-9-9-7-9-7-----x-------|   0:13 - 0:23
|----x---9-12-9----12----------------------------7--10-9-7-5-|
|----7~----------------------------------------------8-------|
|----0~----------------------------------------------0-------|

|----x----------x-x-x-x----|                           \ = slide
|----x----------x-x-x-x----|                           x = mute string
|----x----------x-x-x-x----|   0:23 - 0:29             ~ = let vibrate
|----9-7-5-4----9-9-7-9----|
|----7----------7-7-5-7----|
|----0----------0-0-0-0----|

This is MY FIRST TAB, so calm down if theres any mistakes, or faults in the tab. I am not
certain this is 100 percent or if there are tuning adjustments. PLEASE COMMENT; if you 
corrections, suggestions, or comments.
Tap to rate this tab
# A B C D E F G H I J K L M N O P Q R S T U V W X Y Z