Song name
# A B C D E F G H I J K L M N O P Q R S T U V W X Y Z

Rise Against - Faint Resemblance tab

Help us improve GuitareTab! Take a short survey!
Intro & Verse
E-----------------------------------------------------|
B-----------------------------------------------------|
G---------5555------------55--------------------------|
D---7777--5555--3333------55-55-----------------------|
A---7777--3333--3333------33-55-----------------------|
E---5555--------1111---------33-----------------------|

Chorus
E-----------------------------------------------------|
B-----------------------------------------------------|
G-------55-----------------------55-------------------|
D-3333--55--55--3333--55-77-3333-55-55--3333-5--------|
A-3333--33--55--3333--55-77-3333-33-55--3333-5--------| (LET RING)
E-1111------33--1111--33-55-1111----33--1111-3--------|

Verse (repeat 5 times)

Chorus

Break Down
E-----------------------------------------------------|
B-----------------------------------------------------|
G-----------------------------------------------------|  X2
D-333333333-555555555-----7-5-3-5---------------------|
A-333333333-555555555-x2--7-5-3-5---------------------|
E-111111111-333333333-----5-3-1-3---------------------|

Bridge
E-------------------------------------------------------------------|
B-------------------------------------------------------------------|
G--9999912121212121414141414-14-12-9999912121212121010101010-5-7----|
D--xxxxx-x-x-x-x-x-x-x-x-x-x--x--x-xxxxx-x-x-x-x-x-x-x-x-x-x-x-x----|
A--7777710101010101212121212-12-10-777771010101010-8-8-8-8-8-3-5----|
E-------------------------------------------------------------------|

Chorus

Outro (octave solo)

E---------------------------------------------------------------|
B---------------------------------------------------------------|
G---9999999/7/9999999/12/999999-121212101010999-----------------|
D---xxxxxxx/x/xxxxxxx/xx/xxxxxx--x-x-x-x-x-xxxx-----------------|
A---7777777/5/7777777/10/777777-101010-8-8-8777-----------------|
E---------------------------------------------------------------|


E-------------------------------------------------------------------|
B-------------------------------------------------------------------|
G-14141414141414/12/14141414141414/16/141414141414--1717171616161414|
D--x-x-x-x-x-x-x/-x/x-x-x-x-x-x-x-/-x/x-x-x-x-x-x---x-x-x-x-x-x-x-x-|
A-12121212121212/10/12121212121212/14/121212121212--1515151414141212|
E-------------------------------------------------------------------|


E-------------------------------------------------------------------|
B-------------------------------------------------------------------|
G-171716161414--171717161616141414-191919191717171616141414161616-12|
D-xxxxxxxxxxxxxxxxxxxxxxxxxxxxxxxxxxxxxxxxxxxxxxxxxxxxxxxxxxxxxxxxxx|
A-151514141212--151515141414121212-171717171515151414121212141414-10|
E-------------------------------------------------------------------|


E--------------------------------------------------------------------|
B--------------------------------------------------------------------|
G-12/14141414141414 10/12121212121212-7/10101010101010--7777-10101010|
D--x/-x-x-x-x-x-x-x--x/-x-x-x-x-x-x-x-x/-x-x-x-x-x-x-x--xxxx--x-x-x-x|
A-10/12121212121212--8/10101010101010-5/-8-8-8-8-8-8-8--5555--8-8-8-8|
E--------------------------------------------------------------------|

E-----------------------------------------------------|
B-----------------------------------------------------|
G-----------------------------------------------------|
D---7~~~~~--------------------------------------------| (LET RING)
A---7~~~~~--------------------------------------------|
E---5~~~~~--------------------------------------------|

Related for Faint Resemblance tab