Guitaretab - guitar tabs
Song name
# A B C D E F G H I J K L M N O P Q R S T U V W X Y Z

Rise Against - Nervous Breakdown tab

-----------------------------------------------------------------------------
			     NERVOUS BREAKDOWN  Rise Against
-----------------------------------------------------------------------------
Tabbed by: Metal_Freak
Email:sithdude@gmail.com

Tuning: Standard
				Chorus
e|--------------------------------------------------------------------------|
B|--------------------------------------------------------------------------|
G|------9-------------7-----------------------------------------------------|
D|9-9-9-7-9-9-7-7-7-7-7-7-7---------Repeat-this-2x-for-intro----------------|
A|9-9-7-7-9-9-7-7-7-7-5-7-7---------Then-after-18-drum-beats----------------|
E|7-7-7---7-7-5-5-5-5---5-5-----Repeat-4-more times ------------------------|
				Riff 1
e|--------------------------------------------------------------------------|
B|--------------------------------------------------------------------------|
G|--------------------------------------------------------------------------|
D|5-5-5-5-7-7-7-7-9-9-9-9-9-9-9-9-9--7-5-7-5-7-5-5-5-5-7-7-7-7-9-9-9-9-9-9-9|
A|5-5-5-5-7-7-7-7-9-9-9-9-9-9-9-9-9--7-5-7-5-7-5-5-5-5-7-7-7-7-9-9-9-9-9-9-9|
E|3-3-3-3-5-5-5-5-7-7-7-7-7-7-7-7-7--5-3-5-3-5-3-3-3-3-5-5-5-5-7-7-7-7-7-7-7|

e|--------------------------------------------------------------------------|
B|--------------------------------------------------------------------------|
G|--------------------------------------------------------------------------|
D|-9-9---7-5-7-5-7--5-5-5-5-7-7-7-7--9-9-9-9-9-9-9-9-9-9-9-9-9-9-9-9-9-9-9-9|
A|-9-9---7-5-7-5-7--5-5-5-5-7-7-7-7--9-9-9-9-9-9-9-9-9-9-9-9-9-9-9-9-9-9-9-9|
E|-7-7---5-3-5-3-5--3-3-3-3-5-5-5-5--7-7-7-7-7-7-7-7-7-7-7-7-7-7-7-7-7-7-7-7|
[ Tab from: http://www.guitaretab.com/r/rise-against/139862.html ]
e|--------------------------------------------------------------------------|
B|--------------------------------------------------------------------------|
G|--------------------------------------------------------------------------|
D|-9------------------------------------------------------------------------|
A|-9------------------------------------------------------------------------|
E|-7------------------------------------------------------------------------|
				Riff 2
e|--------------------------------------------------------------------------|
B|--------------------------------------------------------------------------|
G|--------------------------------------------------------------------------|
D|-5-5-5-5-7-7-7-7-9-9-9-9-9-9-9-9-9-7-5-7-5-7-5-5-5-5-7-7-7-7-9-9-9-9-9-9-9|
A|-5-5-5-5-7-7-7-7-9-9-9-9-9-9-9-9-9-7-5-7-5-7-5-5-5-5-7-7-7-7-9-9-9-9-9-9-9|
E|-3-3-3-3-5-5-5-5-7-7-7-7-7-7-7-7-7-5-3-5-3-5-3-3-3-3-5-5-5-5-7-7-7-7-7-7-7|

e|--------------------------------------------------------------------------|
B|--------------------------------------------------------------------------|
G|--------------------------------------------------------------------------|
D|-9-9-7-9-7-5-7-5-7-9-9-9-9-9-9-9-9-9-7-5-7-5-7-9-9-9-9-9-9-9-9-9----------|
A|-9-9-7-9-7-5-7-5-7-9-9-9-9-9-9-9-9-9-7-5-7-5-7-9-9-9-9-9-9-9-9-9----------|
E|-7-7-5-7-5-3-5-3-5-7-7-7-7-7-7-7-7-7-5-3-5-3-5-7-7-7-7-7-7-7-7-7----------|

e|--------------------------------------------------------------------------|
B|--------------------------------------------------------------------------|
G|--------------------------------------------------------------------------|
D|-7-5-7-5-7-9--------------------------------------------------------------|
A|-7-5-7-5-7-9----<-Let-it-ring---------------------------------------------|
E|-5-3-5-3-5-7--------------------------------------------------------------|

How to put it together:

Chorus 2x
Wait for 18 drum beats(listen to song)
Chorus x4
Riff 1
Chorus x6
Riff 1
Chorus x6
Riff 1
Chorus x6
Riff 2

Notes: This is my first tab, so please forgive me if it is not clear enough=)

=============================================================================

Related for Nervous Breakdown tab