Guitaretab - guitar tabs
Song name
# A B C D E F G H I J K L M N O P Q R S T U V W X Y Z

Rise Against - Paper Wings tab

Just saw them live.  This is the correct way.

e|------------------------------9--9--9~----------|
B|---12--10--9--10--9~--12--10--------------------|
G|-99--99--99-99--99--88--88--88-88-88------------|
D|------------------------------------------------|
A|------------------------------------------------|
E|------------------------------------------------|
   **  **  ** **  **  **  **  ** ** **
[ Tab from: http://www.guitaretab.com/r/rise-against/133136.html ]
e|------------------------------------------------|
B|-----10----9----------9----------------9--------|
G|----------------11---------11~--11--9-----11--9-|
D|-1111--1111-1111--1111-1111---99--99-99-99--99--|
A|------------------------------------------------|
E|------------------------------------------------|
   * *   * *  * *   * *  * *    **  ** ** **  **

Legend:
* - Palm Mute

Note: "11" is one eleven, not two one's.
Related for Paper Wings tab
Advertisement will be closed in 10 seconds