Song name
# A B C D E F G H I J K L M N O P Q R S T U V W X Y Z

Rise Against - Savior tab

			     Savior - Rise Against

I saw that there were only two tabs for this song so I decided to make my own. This is 
based off of other tabs but there are a few corrections.
Sorry if this is really bad cause this is my first tab.

/ - slide
PM - Palm Mute
~ - let note ring out
//// - pickslide

Tuning: Standard

Guitar 1
e|-----------------------------------------------------|
B|-----------------------------------------------------|
G|-----------------------------------------------------|
D|--10-10-10-6-6-8-10-8-6-10-10-10-10-10-10-10-10-10---|
A|---8--8--8-8-8-8--8-8-8--8--8--8--8--8--8--8--8--8---|
E|-----------------------------------------------------|
PM     .  .    .             .  .  .  .  .  .  .  .

e|-------------------------------------------------------|
B|-------------------------------------------------------|
G|-------------------------------------------------------|
D|--10-10-10-6-6-8-10-8-6-6-6-6-6-6-6-6-5-5-5-5-5-5-5-5--|
A|---8--8--8-8-8-8--8-8-8-8-8-8-8-8-8-8-8-7-7-7-7-7-7-7--|
E|-------------------------------------------------------|
PM     .  .    .          . . . . . . .   . . . . . . .

e|-----------------------------------------------------|
B|-----------------------------------------------------|
G|-----------------------------------------------------|
D|--10-10-10-6-6-8-10-8-6-10-10-10-10-10-10-10-10-10---|
A|---8--8--8-8-8-8--8-8-8--8--8--8--8--8--8--8--8--8---|
E|-----------------------------------------------------|
PM     .  .    .             .  .  .  .  .  .  .  .

e|-------------------------------------------------------|
B|-------------------------------------------------------|
G|-------------------------------------------------------|
D|--10-10-10-6-6-8-10-8-6-6-6-6-6-6-6-6-5-5-5-5-5-5-5-5~-|
A|---8--8--8-8-8-8--8-8-8-8-8-8-8-8-8-8-8-7-7-7-7-7-7-7~-|
E|-------------------------------------------------------|
PM     .  .    .          . . . . . . .   . . . . . .

Main Riff:
e|---------------------------------------------------------------------|x2
B|---------------------------------------------------------------------|
G|--17-13-15-17-15-13-17---17-13-15-17-15-13--13----12-----------------|
D|---x--x--x--x--x--x--x----x--x--x--x--x--x---x-----x-----------------|
A|--15-11-13-15-13-11-15---15-11-13-15-13-11--11----10-----------------|
E|---------------------------------------------------------------------|


Guitar 2      (Let ending ring 2nd time)
e|-----------------------------------------------------------------|x2
B|-----------------------------------------------------------------|
G|------------------6-6-6-6----------------------------------------|
D|--3-3-3-3-6-6-6-6-6-6-6-6-6-6-5-5--------------------------------|
A|--3-3-3-3-6-6-6-6-4-4-4-4-6-6-5-5--------------------------------|
E|--1-1-1-1-4-4-4-4---------4-4-3-3--------------------------------|

Guitar 1
e|------------|
B|------------|
G|------------|
D|--1h3~------|
A|------------|
E|------------|

Guitar 2
e|---------------------------------------------------------------------|
B|---------------------------------------------------------------------|
G|------------------6-6-6-6--------------------------------------------|
D|--3-3-3-3-6-6-6-6-6-6-6-6-6-6-5-5------------------------------------|
A|--3-3-3-3-6-6-6-6-4-4-4-4-6-6-5-5------------------------------------|
E|--1-1-1-1-4-4-4-4---------4-4-3-3------------------------------------|
PM    . . .   . . .     .  .  .   .   .

Guitar 2
e|-------------------------------------------------------------------------|
B|-------------------------------------------------------------------------|
G|-------------------------------------------------------------------------|
D|--6-6-6-8-8-8-6-6-6-8-8-8~--x--------------------------------------------|
A|--6-6-6-8-8-8-6-6-6-8-8-8~--x--------------------------------------------|
E|--4-4-4-6-6-6-4-4-4-6-6-6~--x--------------------------------------------|

Guitar 1
e|----------11---------11--------11--------11--------11--------11------|
B|--------9----9-----9----9----9----9----9----9----9----9----9----9/11~|
G|---9/10---------10---------9---------9---------8---------8-----------|
D|---------------------------------------------------------------------|
A|---------------------------------------------------------------------|
E|---------------------------------------------------------------------|

Guitar 2    
e|-----------------------------------------------------------------|x3
B|-----------------------------------------------------------------|
G|------------------6-6-6-6----------------------------------------|
D|--3-3-3-3-6-6-6-6-6-6-6-6-6-6-5-5--------------------------------|
A|--3-3-3-3-6-6-6-6-4-4-4-4-6-6-5-5--------------------------------|
E|--1-1-1-1-4-4-4-4---------4-4-3-3--------------------------------|

Guitar 1
e|---------------------------------------------------------------------|x1
B|---------------------------------------------------------------------|
G|--17-13-15-17-15-13-17---17-13-15-17-15-13--13---12~-----------------|
D|---x--x--x--x--x--x--x----x--x--x--x--x--x---x----x------------------|
A|--15-11-13-15-13-11-15---15-11-13-15-13-11--11---10~-----------------|
E|---------------------------------------------------------------------|

Guitar 1
e|------------------|
B|------------------|
G|------------------|
D|-\\\\\\---3~------|
A|-\\\\\\-----------|
E|-\\\\\\-----------|

Guitar 2
e|---------------------------------------------------------------------|
B|---------------------------------------------------------------------|
G|------------------6-6-6-6--------------------------------------------|
D|--3-3-3-3-6-6-6-6-6-6-6-6-6-6-5-5------------------------------------|
A|--3-3-3-3-6-6-6-6-4-4-4-4-6-6-5-5------------------------------------|
E|--1-1-1-1-4-4-4-4---------4-4-3-3------------------------------------|
PM    . . .   . . .     .  .  .   .   .


Guitar 1
e|------------------|
B|------------------|
G|------------------|
D|-6/5/1/3~---------|
A|------------------|
E|------------------|

Guitar 2
e|-------------------------------------------------------------------------|
B|-------------------------------------------------------------------------|
G|-------------------------------------------------------------------------|
D|--6-6-6-8-8-8-6-6-6-8-8-8~--x--------------------------------------------|
A|--6-6-6-8-8-8-6-6-6-8-8-8~--x--------------------------------------------|
E|--4-4-4-6-6-6-4-4-4-6-6-6~--x--------------------------------------------|

Guitar 1
e|----------11---------11--------11--------11--------11--------11------|
B|--------9----9-----9----9----9----9----9----9----9----9----9----9/11~|
G|---9/10---------10---------9---------9---------8---------8-----------|
D|---------------------------------------------------------------------|
A|---------------------------------------------------------------------|
E|---------------------------------------------------------------------|

Guitar 1
e|------------------|x5
B|------------------|
G|------------------|
D|-6-6-6/5/1-3------|
A|------------------|
E|------------------|

Guitar 1
e|------------------------|x5
B|------------------------|
G|--10-10-10---13-12-8----|
D|---x--x--x---x--x--x----|
A|---8--8--8---11-13-11---|
E|------------------------|

e|-----------------------------|x1
B|-----------------------------|
G|--10-10-10--12b-12b-12b-12~--|
D|---x--x--x---x---x---x---x---|
A|---8--8--8--10b-10b-10b-10~--|
E|-----------------------------|


Guitar 2
e|-------------------------|x3
B|-------------------------|
G|-------------------------|
D|--3--3--3-x-3-3-3-3-x----|
A|--3--3--3-x-3-3-3-3-x----|
E|--1--1--1-x-1-1-1-1-x----|

e|---------------------|x1
B|---------------------|
G|---------------------|
D|--3--3--3-x-6-5-5-5~-|
A|--3--3--3-x-6-5-5-5~-|
E|--1--1--1-x-4-3-3-3~-|

Guitar 1
e|-----------------------------------------------|
B|-----------------------------------------------|
G|--10-13-15-13-12-8-10~-------------------------|
D|---x--x--x--x--x-x--x~-------------------------|
A|---8-11-13-11-10-6--8~-------------------------|
E|-----------------------------------------------|

Guitar 2
e|--------------------|
B|--------------------|
G|---3/5/6/8/10-------|
D|---3/5/6/8/10-------|
A|---1/3/4/6/8--------|
E|--------------------|

Guitar 2
e|--------------------------------------------------------------------|
B|--------------------------------------------------------------------|
G|--------------------------------------------------------------------|
D|-----10-8-10----10-8-10----10-8-10----10-8-10----10-8-10----10-8-10-|
A|---8----------8----------8----------8---------11---------11---------|
E|--------------------------------------------------------------------|

e|--------------------------------------------------------------------|
B|--------------------------------------------------------------------|
G|--------------------------------------------------------------------|
D|-----10-8-10----10-8-10----10-8-10----10-8-10----10-8-10----10-8-10-|
A|---10---------10---------8----------8----------8----------8---------|
E|--------------------------------------------------------------------|

Guitar 1
e|----------11---------11--------11--------11--------11--------11------|
B|--------9----9-----9----9----9----9----9----9----9----9----9----9/11~|
G|---9/10---------10---------9---------9---------8---------8-----------|
D|---------------------------------------------------------------------|
A|---------------------------------------------------------------------|
E|---------------------------------------------------------------------|


Guitar 2
e|---------------------------------------------------------------------|
B|---------------------------------------------------------------------|
G|------------------6-6-6-6--------------------------------------------|
D|--3-3-3-3-6-6-6-6-6-6-6-6-6-6-5-5--------------------------------|
A|--3-3-3-3-6-6-6-6-4-4-4-4-6-6-5-5--------------------------------|
E|--1-1-1-1-4-4-4-4---------4-4-3-3--------------------------------|

Guitar 1
e|---------------------------------------------------------------------|
B|---------------------------------------------------------------------|
G|--17-13-15-17-15-13-17---17-13-15-17-15-13--13---12~-----------------|
D|---x--x--x--x--x--x--x----x--x--x--x--x--x---x----x------------------|
A|--15-11-13-15-13-11-15---15-11-13-15-13-11--11---10~-----------------|
E|---------------------------------------------------------------------|

Both Guitars
e|---------------------|
B|---------------------|
G|---------------------|
D|---6-x-5-x-3~--------|
A|---6-x-5-x-3~--------|
E|---4-x-3-x-1~--------|
Tap to rate this tab
# A B C D E F G H I J K L M N O P Q R S T U V W X Y Z