Song name
# A B C D E F G H I J K L M N O P Q R S T U V W X Y Z

Rise Against - Voices Off Camera tab

Voices off camera
  


Eb|----------------------------------------------------------------------------|
Bb|----------------------------------------------------------------------------|
Gb|----------------------------------------------------------------------------|
Db|--------------------------------------------------1--1--2--4~~--------------|
Ab|-6--6--6-2--4--4--1--1--2-1--1--1-2--2--2-4--4--4--22-22-2-4~~--------------|
Eb|--44-44-4-44-44-4--22-22-2-22-22-2-00-00-0-00-00-0---------2~~--------------|
  pm.........................................................

verse 1

  gtr.1				
Eb|----------------------------------------------------------------------------|
Bb|----------------------------------------------------------------------------|
Gb|-------------------------------------------4444444444-----------------------|
Db|-6666666666----4444444444----2222222222----4444444444----44444444444--------|
Ab|-6666666666----4444444444----2222222222----2222222222----44444444444--------|
Eb|-4444444444----2222222222----0000000000------------------22222222222--------|

gtr.2
Eb|----------------------------------------------------------------------------|
Bb|----------------------------------------------------------------------------|
Gb|----------------------------------------------------------------------------|
Db|-------------------------------------------------------111111-22------------|
Ab|-666666-2222-4444-111111-22-11111111-22222222-44444444-222222-22-44444444---|
Eb|-444444-4444-4444-222222-22-22222222-00000000-00000000-----------22222222---|


Chorus

Eb|----------------------------------------------------------------------------|
Bb|----------------------------------------------------------------------------|
Gb|----------------------------------------------------------------------------|
Db|-999--99-----------999--99-1111-------999-99----------999--99---6-----------|
Ab|-777--66--88--66---777--66--9-9--66---777-66--88-66---777--99---6-----------|
Eb|----------66--44-----------------44-----------66-44--------77---4-----------|




Like the angel
Verse 1 & 2 - Guitar 1 & 2
E|----------------|----------------|----------------|----------------||
B|----------------|----------------|----------------|----------------||
G|----------------|----------------|----------------|----------------||
D|----------------|----------------|----------------|----------------||
A|-4--4-4-4-4-4-4-|-6--6-6-6-6-6-6-|-8--8-8-8-8-8-8-|-9--9-9-9-9-9-9-||
E|-6--6-6-6-6-6-6-|-4--4-4-4-4-4-4-|-9--9-9-9-9-9-9-|-9--9-9-9-9-9-9-||
      ...........      ...........      ...........      ...........

E|----------------|----------------|----------------|----------------||
B|----------------|----------------|----------------|----------------||
G|----------------|----------------|----------------|----------------||
D|----------------|----------------|----------------|----------------||
A|-8--8-8-8-8-8-8-|-6--6-6-6-6-6-6-|-8--8-8-8-8-8-8-|-8-8-8-8-8-8-8-8||
E|-9--9-9-9-9-9-9-|-8--8-8-8-8-8-8-|-6--6-6-6-6-6-6-|-6-6-6-6-6-6-6-6||
      ...........      ...........      ...........   ...............

E|----------------|----------------|----------------|----------------||
B|----------------|----------------|----------------|----------------||
G|----------------|----------------|----------------|----------------||
D|----------------|----------------|----------------|----------------||
A|-4--4-4-4-4-4-4-|-6--6-6-6-6-6-6-|-8--8-8-8-8-8-8-|-9--9-9-9-9-9-9-||
E|-6--6-6-6-6-6-6-|-4--4-4-4-4-4-4-|-9--9-9-9-9-9-9-|-9--9-9-9-9-9-9-||
      ...........      ...........      ...........      ...........

E|----------------|----------------|----------------|----------------||
B|----------------|----------------|----------------|----------------||
G|----------------|----------------|----------------|----------------||
D|----------------|----------------|----------------|----------------||
A|-8--8-8-8-8-8-8-|-6--6-6-6-6-6-6-|-8--8-8-8-8-8-8-|-8-8-8-8-8-8-8-8||
E|-9--9-9-9-9-9-9-|-8--8-8-8-8-8-8-|-6--6-6-6-6-6-6-|-6-6-6-6-6-6-6-6||
Tap to rate this tab
# A B C D E F G H I J K L M N O P Q R S T U V W X Y Z