Song name
# A B C D E F G H I J K L M N O P Q R S T U V W X Y Z

Rise Against - Everchanging Acoustic tab

                                     EVERCHANGING (ACOUSTIC)
                                   As recorded by Rise Against


Tabbed by ssjEasterBunny
         (ssjEasterBunny@hotmail.com)


Gtr I (Eb Ab Db Gb Bb Eb)


 Intro
    Am7no5          F5                C/G
   4/4
    S E   E   E   S S E   E   E   S   S E   E   E   S S E   E   E   S
Eb|---------------------------------|---------------------------------|
Bb|---------------------------------|---------------------------------|
Gb|---------------------------------|---------------------------------|
Db|-------5---------------3---------|-------2-------------------------|
Ab|---3-------3-------3-------3-----|---3-------3-----5-3---2---3-----|
Eb|-5-------------5-1-------------1-|-3-------------3---------------3-|
   “In the face...”

    Am7no5          F5                C/G
    S E   E   E   S S E   E   E   S   S E   E   E   S S E   E   E   S
Eb|---------------------------------|---------------------------------|
Bb|---------------------------------|---------------------------------|
Gb|---------------------------------|---------------------------------|
Db|-------5---------------3---------|-------2-------------------------|
Ab|---3-------3-------3-------3-----|---3-------3-----5-3---2---3-----|
Eb|-5-------------5-1-------------1-|-3-------------3---------------3-|


    Am7no5          F5                C/G
    S E   E   E   S S E   E   E   S   S E   E   E   S S E   E   E   S
Eb|---------------------------------|---------------------------------|
Bb|---------------------------------|---------------------------------|
Gb|---------------------------------|---------------------------------|
Db|-------5---------------3---------|-------2-------------------------|
Ab|---3-------3-------3-------3-----|---3-------3-----5-3---2---3-----|
Eb|-5-------------5-1-------------1-|-3-------------3---------------3-|


    Am7no5          F5                C/G
    S E   E   E   S S E   E   E   S   S E   E   E   S S E   E   E   S
Eb|---------------------------------|---------------------------------|
Bb|---------------------------------|---------------------------------|
Gb|---------------------------------|---------------------------------|
Db|-------5---------------3---------|-------2-------------------------|
Ab|---3-------3-------3-------3-----|---3-------3-----5-3---2---3-----|
Eb|-5-------------5-1-------------1-|-3-------------3---------------3-|


 Verse
    Am7no5          F5                C/G            (See end of tab for chords*)
    S S S S S S S S S S S S S S S S   S S S S S S S S S S S S S S S S
Eb|---------------------------------|---------------------------------|
Bb|---------------------------------|---------------------------------|
Gb|---------------------------------|---------------------------------|
Db|-5-5-5-5-5-5-5-5-3-3-3-3-3-3-3-3-|-2-2-2-2-2-2-2-2-0-0-0-0-0-0-0-0-|
Ab|-3-3-3-3-3-3-3-3-3-3-3-3-3-3-3-3-|-3-3-3-3-3-3-3-3-5-3-2-2-2-2-2-2-|
Eb|-5-5-5-5-5-5-5-5-1-1-1-1-1-1-1-1-|-3-3-3-3-3-3-3-3-3-3-3-3-3-3-3-3-|
PM: . . . . . . . . . . . . . . . .   . . . . . . . . . . . . . . . .
   “Have you ever...”
   “There’s nothing simple...”

    Am7no5          F5                C/G
    S S S S S S S S S S S S S S S S   S S S S S S S S S S S S S S S S
Eb|---------------------------------|---------------------------------|
Bb|---------------------------------|---------------------------------|
Gb|---------------------------------|---------------------------------|
Db|-5-5-5-5-5-5-5-5-3-3-3-3-3-3-3-3-|-2-2-2-2-2-2-2-2-0-0-0-0-0-0-0-0-|
Ab|-3-3-3-3-3-3-3-3-3-3-3-3-3-3-3-3-|-3-3-3-3-3-3-3-3-5-3-2-2-2-2-2-3-|
Eb|-5-5-5-5-5-5-5-5-1-1-1-1-1-1-1-1-|-3-3-3-3-3-3-3-3-3-3-3-3-3-3-3-3-|
PM: . . . . . . . . . . . . . . . .   . . . . . . . . . . . . .

    Am7no5          F5                C/G             G
    S S S S S S S S S S S S S S S S   S S S S S S S S S S S S S S S S
Eb|---------------------------------|---------------------------------|
Bb|---------------------------------|---------------------------------|
Gb|---------------------------------|---------------------------------|
Db|-5-5-5-5-5-5-5-5-3-3-3-3-3-3-3-3-|-2-2-2-2-2-2-2-2-0-0-0-0-0-0-0-0-|
Ab|-3-3-3-3-3-3-3-3-3-3-3-3-3-3-3-3-|-3-3-3-3-3-3-3-3-2-2-2-2-2-2-2-2-|
Eb|-5-5-5-5-5-5-5-5-1-1-1-1-1-1-1-1-|-3-3-3-3-3-3-3-3-3-3-3-3-3-3-3-3-|
PM: . .   . .   .   . .   . .   .     . .   . .   .   . .   . .   .

    Am7no5          F5                C/G             G
    S S S S S S S S S S S S S S S S   S S S S S S S S S S S S S S S S
Eb|---------------------------------|---------------------------------|
Bb|---------------------------------|---------------------------------|
Gb|---------------------------------|---------------------------------|
Db|-5-5-5-5-5-5-5-5-3-3-3-3-3-3-3-3-|-2-2-2-2-2-2-2-2-0-0-0-0-0-0-0-0-|
Ab|-3-3-3-3-3-3-3-3-3-3-3-3-3-3-3-3-|-3-3-3-3-3-3-3-3-2-2-2-2-2-2-2-2-|
Eb|-5-5-5-5-5-5-5-5-1-1-1-1-1-1-1-1-|-3-3-3-3-3-3-3-3-3-3-3-3-3-3-3-3-|
PM: . .   . .   .   . .   . .   .     . .   . .   .   . .   . .   .

---------------------------------------------------------------------------------|
||-------------------------------------------------------------------------------|
||
||  Live Verse
||     Am7no5          F5                C/G
||     S S S S S S S S S S S S S S S S   S S S S S S S S S S S S S S S S
|| Eb|---------------------------------|---------------------------------|
|| Bb|---------------------------------|---------------------------------|
|| Gb|---------------------------------|---------------------------------|
|| Db|-5-5-5-5-5-5-5-5-3-3-3-3-3-3-3-3-|-2-2-2-2-2-2-2-2-0-0-0-0-0-0-0-0-|
|| Ab|-3-3-3-3-3-3-3-3-3-3-3-3-3-3-3-3-|-3-3-3-3-3-3-3-3-5-3-2-2-2-2-2-2-|
|| Eb|-5-5-5-5-5-5-5-5-1-1-1-1-1-1-1-1-|-3-3-3-3-3-3-3-3-3-3-3-3-3-3-3-3-|
|| PM: . . . . . . . . . . . . . . . .   . . . . . . . . . . . . . . . .
||    “Have you ever...”
||    “There’s nothing simple...”
||
||     Am7no5          F5                C/G
||     S S S S S S S S S S S S S S S S   S S S S S S S S S S S S E S S S
|| Eb|---------------------------------|---------------------------------|
|| Bb|---------------------------------|---------------------------------|
|| Gb|---------------------------------|---------------------------------|
|| Db|-5-5-5-5-5-5-5-5-3-3-3-3-3-3-3-3-|-2-2-2-2-2-2-2-2-0-0-0-0---0-0-0-|
|| Ab|-3-3-3-3-3-3-3-3-3-3-3-3-3-3-3-3-|-3-3-3-3-3-3-3-3-5-3-2-2---2-2-3-|
|| Eb|-5-5-5-5-5-5-5-5-1-1-1-1-1-1-1-1-|-3-3-3-3-3-3-3-3-3-3-3-3---3-3-3-|
|| PM: . . . . . . . . . . . . . . . .   . . . . . . . .
||
||     Am7no5          F5                C/G             G
||     S S S S S S S S S S S S S S S S   S S S S S S S S S S S S S S S S
|| Eb|---------------------------------|---------------------------------|
|| Bb|---------------------------------|---------------------------------|
|| Gb|---------------------------------|---------------------------------|
|| Db|-----5-5-----5-5-----3-3-----3-3-|-----2-2-----2-2-----0-0-----0-0-|
|| Ab|-3-3-3-3-3-3-3-3-3-3-3-3-3-3-3-3-|-3-3-3-3-3-3-3-3-2-2-2-2-2-2-2-2-|
|| Eb|-5-5-5-5-5-5-5-5-1-1-1-1-1-1-1-1-|-3-3-3-3-3-3-3-3-3-3-3-3-3-3-3-3-|
|| PM: . .     . .     . .     . .       . .     . .     . .     . .
||
||     Am7no5          F5                C/G             G
||     S S S S S S S S S S S S S S S S   S S S S S S S S S S S S S S S S
|| Eb|---------------------------------|---------------------------------|
|| Bb|---------------------------------|---------------------------------|
|| Gb|---------------------------------|---------------------------------|
|| Db|-----5-5-----5-5-----3-3-----3-3-|-----2-2-----2-2-----0-0-----0-0-|
|| Ab|-3-3-3-3-3-3-3-3-3-3-3-3-3-3-3-3-|-3-3-3-3-3-3-3-3-2-2-2-2-2-2-2-2-|
|| Eb|-5-5-5-5-5-5-5-5-1-1-1-1-1-1-1-1-|-3-3-3-3-3-3-3-3-3-3-3-3-3-3-3-3-|
|| PM: . .     . .     . .     . .       . .     . .     . .     . .
||
||-------------------------------------------------------------------------------|
---------------------------------------------------------------------------------|


 Pre-Chorus
    G               G7       Gsus4
    E   E   TTTTS TTE   E   TTTTS TT
Eb|-3---3---33333-331---1---10000---|
Bb|-0---0---00000-000---0---01111-11|
Gb|-0---0---00000-000---0---00000-00|
Db|-0---0---00000-000---0---00000-00|
Ab|-x---x---xxxxx-xxx---x---xxxxx-xx|
Eb|-3---3---33333-333---3---33333-33|


 Chorus
    C               G                 C               F/C
    E   E   TTTTS TTE   E   TTTTS TT  E   E   TTTTS TTE   E   TTTTS TT
Eb|---------------------------------|---------------------------------|
Bb|-1---1---11111-113---3---33333-33|-1---1---11111-111---1---11111-11|
Gb|-0---0---00000-000---0---00000-00|-0---0---00000-002---2---22222-22|
Db|-2---2---22222-220---0---00000-00|-2---2---22222-223---3---33333-33|
Ab|-3---3---33333-33x---x---xxxxx-xx|-3---3---33333-333---3---33333-33|
Eb|-----------------3---3---33333-33|---------------------------------|
   “And now the lines...”

    C               G                 F/C
    E   E   TTTTS TTE   E   TTTTS TT  E   E   TTTTS TTE   E   TTTTS TT
Eb|---------------------------------|---------------------------------|
Bb|-1---1---11111-113---3---33333-33|-1---1---11111-111---1---11111-11|
Gb|-0---0---00000-000---0---00000-00|-2---2---22222-222---2---22222-22|
Db|-2---2---22222-220---0---00000-00|-3---3---33333-333---3---33333-33|
Ab|-3---3---33333-33x---x---xxxxx-xx|-3---3---33333-333---3---33333-33|
Eb|-----------------3---3---33333-33|---------------------------------|


    C               G                 C               F/C
    E   E   TTTTS TTE   E   TTTTS TT  E   E   TTTTS TTE   E   TTTTS TT
Eb|---------------------------------|---------------------------------|
Bb|-1---1---11111-113---3---33333-33|-1---1---11111-111---1---11111-11|
Gb|-0---0---00000-000---0---00000-00|-0---0---00000-002---2---22222-22|
Db|-2---2---22222-220---0---00000-00|-2---2---22222-223---3---33333-33|
Ab|-3---3---33333-33x---x---xxxxx-xx|-3---3---33333-333---3---33333-33|
Eb|-----------------3---3---33333-33|---------------------------------|


    C               G                 F/C
    E   E   TTTTS TTE   E   TTTTS TT  E   E   TTTTS TTE   E   TTTTS TT
Eb|---------------------------------|---------------------------------|
Bb|-1---1---11111-113---3---33333-33|-1---1---11111-111---1---11111-11|
Gb|-0---0---00000-000---0---00000-00|-2---2---22222-222---2---22222-22|
Db|-2---2---22222-220---0---00000-00|-3---3---33333-333---3---33333-33|
Ab|-3---3---33333-33x---x---xxxxx-xx|-3---3---33333-333---3---33333-33|
Eb|-----------------3---3---33333-33|---------------------------------|


 Bridge
    C
   (Lightly stum)
    Q       Q       S E   S E   E     Q       Q       S E   S E   E
Eb|---------------------------------|---------------------------------|
Bb|-1-------1-------1-1---1-1---1---|-1-------1-------1-1---1-1---1---|
Gb|-0-------0-------0-0---0-0---0---|-0-------0-------0-0---0-0---0---|
Db|-2-------2-------2-2---2-2---2---|-2-------2-------2-2---2-2---2---|
Ab|-3-------3-------3-3---3-3---3---|-3-------3-------3-3---3-3---3---|
Eb|---------------------------------|---------------------------------|


    C
    Q       Q       S E   S E   E     Q       Q       S E   S E   E
Eb|---------------------------------|---------------------------------|
Bb|-1-------1-------1-1---1-1---1---|-1-------1-------1-1---1-1---1---|
Gb|-0-------0-------0-0---0-0---0---|-0-------0-------0-0---0-0---0---|
Db|-2-------2-------2-2---2-2---2---|-2-------2-------2-2---2-2---2---|
Ab|-3-------3-------3-3---3-3---3---|-3-------3-------3-3---3-3---3---|
Eb|---------------------------------|---------------------------------|
   “And now something...”

    C
                                                 (Build back up to normal strumming)
    Q       Q       S E   S E   E     Q       E   S S S S S S S S S S
Eb|---------------------------------|---------------------------------|
Bb|-1-------1-------1-1---1-1---1---|-1-------1---1-1-1-1-1-1-1-1-1-1-|
Gb|-0-------0-------0-0---0-0---0---|-0-------0---0-0-0-0-0-0-0-0-0-0-|
Db|-2-------2-------2-2---2-2---2---|-2-------2---2-2-2-2-2-2-2-2-2-2-|
Ab|-3-------3-------3-3---3-3---3---|-3-------3---3-3-3-3-3-3-3-3-3-3-|
Eb|---------------------------------|---------------------------------|


    C               F/C               Am              G
    Q       E   S S Q       E   S S   Q       E   S S Q       E   S S
Eb|---------------------------------|-0-------0---0-0-----------------|
Bb|-1-------1---1-1-1-------1---1-1-|-1-------1---1-1-3-------3---3-3-|
Gb|-0-------0---0-0-2-------2---2-2-|-2-------2---2-2-0-------0---0-0-|
Db|-2-------2---2-2-3-------3---3-3-|-2-------2---2-2-0-------0---0-0-|
Ab|-3-------3---3-3-3-------3---3-3-|-0-------0---0-0-x-------x---x-x-|
Eb|---------------------------------|-----------------3-------3---3-3-|


    C               F/C               G
    Q       E   S S Q       E   S S   Q       E   S E   S S S S S S S
Eb|---------------------------------|---------------------------------|
Bb|-1-------1---1-1-1-------1---1-1-|-3-------3---3-3---3-3-3-3-3-3-3-|
Gb|-0-------0---0-0-2-------2---2-2-|-0-------0---0-0---0-0-0-0-0-0-0-|
Db|-2-------2---2-2-3-------3---3-3-|-0-------0---0-0---0-0-0-0-0-0-0-|
Ab|-3-------3---3-3-3-------3---3-3-|-x-------x---x-x---x-x-x-x-x-x-x-|
Eb|---------------------------------|-3-------3---3-3---3-3-3-3-3-3-3-|


    C               F/C               Am              G
    Q       E   S S Q       E   S S   Q       E   S S Q       E   S S
Eb|---------------------------------|-0-------0---0-0-----------------|
Bb|-1-------1---1-1-1-------1---1-1-|-1-------1---1-1-3-------3---3-3-|
Gb|-0-------0---0-0-2-------2---2-2-|-2-------2---2-2-0-------0---0-0-|
Db|-2-------2---2-2-3-------3---3-3-|-2-------2---2-2-0-------0---0-0-|
Ab|-3-------3---3-3-3-------3---3-3-|-0-------0---0-0-x-------x---x-x-|
Eb|---------------------------------|-----------------3-------3---3-3-|


    C               F/C               G
    Q       E   S S Q       E   S S   Q       E   S S S S S S S S S S
Eb|---------------------------------|---------------------------------|
Bb|-1-------1---1-1-1-------1---1-1-|-3-------3---3-3-3-3-3-3-3-3-3-3-|
Gb|-0-------0---0-0-2-------2---2-2-|-0-------0---0-0-0-0-0-0-0-0-0-0-|
Db|-2-------2---2-2-3-------3---3-3-|-0-------0---0-0-0-0-0-0-0-0-0-0-|
Ab|-3-------3---3-3-3-------3---3-3-|-x-------x---x-x-x-x-x-x-x-x-x-x-|
Eb|---------------------------------|-3-------3---3-3-3-3-3-3-3-3-3-3-|


 Outro
    C             F/C                 Am            G
    E   E   S S S E   S E   S S S S   E   E   S S S E   S E   S S S S
Eb|---------------------------------|---------------------------------|
Bb|-1---1---1-1-1-1---1-1---1-1-1-1-|-1---1---1-1-1-3---3-3---3-3-3-3-|
Gb|-0---0---0-0-0-2---2-2---2-2-2-2-|-2---2---2-2-2-0---0-0---0-0-0-0-|
Db|-2---2---2-2-2-3---3-3---3-3-3-3-|-2---2---2-2-2-0---0-0---0-0-0-0-|
Ab|-3---3---3-3-3-3---3-3---3-3-3-3-|-0---0---0-0-0-x---x-x---x-x-x-x-|
Eb|---------------------------------|---------------3---3-3---3-3-3-3-|


    C             F/C                 G
    E   E   S S S E   S E   S S S S   E   E   S S S E   S E   S S S S
Eb|---------------------------------|---------------------------------|
Bb|-1---1---1-1-1-1---1-1---1-1-1-1-|-3---3---3-3-3-3---3-3---3-3-3-3-|
Gb|-0---0---0-0-0-2---2-2---2-2-2-2-|-0---0---0-0-0-0---0-0---0-0-0-0-|
Db|-2---2---2-2-2-3---3-3---3-3-3-3-|-0---0---0-0-0-0---0-0---0-0-0-0-|
Ab|-3---3---3-3-3-3---3-3---3-3-3-3-|-x---x---x-x-x-x---x-x---x-x-x-x-|
Eb|---------------------------------|-3---3---3-3-3-3---3-3---3-3-3-3-|


    C             F/C                 Am            G
    E   E   S S S E   S E   S S S S   E   E   S S S E   S E   S S S S
Eb|---------------------------------|-0---0---0-0-0-------------------|
Bb|-1---1---1-1-1-1---1-1---1-1-1-1-|-1---1---1-1-1-3---3-3---3-3-3-3-|
Gb|-0---0---0-0-0-2---2-2---2-2-2-2-|-2---2---2-2-2-0---0-0---0-0-0-0-|
Db|-2---2---2-2-2-3---3-3---3-3-3-3-|-2---2---2-2-2-0---0-0---0-0-0-0-|
Ab|-3---3---3-3-3-3---3-3---3-3-3-3-|-0---0---0-0-0-x---x-x---x-x-x-x-|
Eb|---------------------------------|---------------3---3-3---3-3-3-3-|


    C             F/C                 G
    E   E   S S S E   S E   S S S S   E   E   S S S E   S E   S S S S
Eb|---------------------------------|---------------------------------|
Bb|-1---1---1-1-1-1---1-1---1-1-1-1-|-3---3---3-3-3-3---3-3---3-3-3-3-|
Gb|-0---0---0-0-0-2---2-2---2-2-2-2-|-0---0---0-0-0-0---0-0---0-0-0-0-|
Db|-2---2---2-2-2-3---3-3---3-3-3-3-|-0---0---0-0-0-0---0-0---0-0-0-0-|
Ab|-3---3---3-3-3-3---3-3---3-3-3-3-|-x---x---x-x-x-x---x-x---x-x-x-x-|
Eb|---------------------------------|-3---3---3-3-3-3---3-3---3-3-3-3-|


    C
    W                                +W
Eb|---------------------------------|---------------------------------|
Bb|-1-------------------------------|(1)------------------------------|
Gb|-0-------------------------------|(0)------------------------------|
Db|-2-------------------------------|(2)------------------------------|
Ab|-3-------------------------------|(3)------------------------------|
Eb|---------------------------------|---------------------------------|


    C
    W
Eb|---------------------------------|
Bb|-1-------------------------------|
Gb|-0-------------------------------|
Db|-2-------------------------------|
Ab|-3-------------------------------|
Eb|---------------------------------|


* Squeezing in the chord names for that last bit of palm muting in the verse would
up the spacing, and I want the spacing to represent the strumming.  If you’re dying to know,
last few palm muted chords should look like this:

         G5 Gsus4 G
         S  S     S S S S S S
     Eb|----------------------|
     Bb|----------------------|
     Gb|----------------------|
     Db|-0--0-----0-0-0-0-0-0-|
     Ab|-5--3-----2-2-2-2-2-2-|
     Eb|-3--3-----3-3-3-3-3-3-|
     PM: .  .     . . . . . .


** I’m aware that on the recorded version, he lets up on the palm muting one strum
in the second verse than he does in the first.  However, he does this differently at each
show (what I’ve tabbed for Live Verse is one example), so it’s really a spontaneous 
 All that matters is that you let up on the palm muting somewhere around that that point.


Song Progression
----------------
  Intro
  Verse or Live Verse
  Pre-Chorus
  Chorus
  Verse or Live Verse
  Pre-Chorus
  Chorus
  Bridge
  Outro


Duration and Tablature Legend
-----------------------------
  W = Whole note       S = Sixteenth note
  H = Half note        T = Thirty-second note
  Q = Quarter note     + = Tied to previous note
  E = Eighth note      . = Palm mute (PM)
Tap to rate this tab
# A B C D E F G H I J K L M N O P Q R S T U V W X Y Z