Guitaretab - guitar tabs
Song name
# A B C D E F G H I J K L M N O P Q R S T U V W X Y Z

Rise Against - Drones tab

I'm pretty sure this all (?) right :)
Tuning (I don't know if this particular tuning has an actual name)
This is what I use:
F
C
G#
D#
A#
D#
this is drop D, tuned UP half a step.

pm *= palm mute
x= mute string

Guitar 1 is the main guitar that you can hear
Guitar 2 is the other guitar in the back ground most of the time :)
_____________________________________
Intro
Guitar 1
|--
|--
|--
|0~
|0~    Pickslide on 8th bar after drums start
|0~

Main Riff
Guitars 1+2
|----------------|
|----------------|
|--57------57----|
|0057003-0057005-
|0035003-0035005-    X3
|00--003-00--005-

Verse 1
Guitars 1+2
|----------------1~--------------|
|----------------3~--------------|
|----------------3~--------------|
|0~--------------0~----Pickslide-|
|0~--------------0~--------------|
|0~--------------0~--------------|

Guitar 1
|-------------------------------5---------------------------------|
|-------------------------------5---------------------------------|
|-------------------------------5-------------------------5555552-|
|0-0000000000000003-3333335-55555-0-000000000000003-3333335555552-|
|0-0000000000000003-3333335-55555-0-000000000000003-3333333333330-|
|0-0000000000000003-3333335-55555-0-000000000000003-333333--------|
pm ***************  ******  ****    **************  ******

Guitar 2
|----------------------------------------------------------|
|----------------------------------------------------------|
|7-57-57-9-9-9-7-57-57-9-9-9-7-57-57-9-9-9-10-99-7-7-9-9-2-|
|x-xx-xx-x-x-x-x-xx-xx-x-x-x-x-xx-xx-x-x-x--x-xx-x-x-x-x-2-|
|5-35-35-7-7-7-5-35-35-7-7-7-5-35-35-7-7-7--8-77-5-5-7-7-0-|
|----------------------------------------------------------|


Chorus
Guitar 1
|-----------------------------------------------------------------|
|-----------------------------------------------------------------|
|3-333333333322225-5555555555555-222-222-000-000-7777555533332222-|
|3-333333333333335-5555555555555-222-222-000-000-xxxxxxxxxxxxxxxx-|
|1-111111111111113-3333333333333-000-000-000-000-5555333311110000-|
|-----------------------------------------------------------------|
pm                               **  **  **  **

Guitar 2
|-----------------------------------------------------------------|
|-----------------------------------------------------------------|
|3-333333333322225-5555555555555-222-222-000-000------------------|
|3-333333333333335-5555555555555-222-222-000-000-0000222233335555-|
|1-111111111111113-3333333333333-000-000-000-000-0000222233335555-|
|------------------------------------------------0000222233335555-|
pm                               **  **  **  **

Guitar 1
|-----------------------------------------------------------------|
|--------------------------------------------------------3--------|
|3-333333333322225-5555555555555-222-222-000-000-77775555x--------|
|3-333333333333335-5555555555555-222-222-000-000-xxxxxxxxx--------|drum fill
|1-111111111111113-3333333333333-000-000-000-000-555533333--------|
|-----------------------------------------------------------------|
pm                               **  **  **  **

Guitar 2
|-----------------------------------------------------------------|
|-----------------------------------------------------------------|
|3-333333333322225-5555555555555-222-222-000-000-222222223--------|
|3-333333333333335-5555555555555-222-222-000-000-222222223--------|drum fill
|1-111111111111113-3333333333333-000-000-000-000-000000001--------|
|-----------------------------------------------------------------|
pm                               **  **  **  **

Link to verse 2 (Main Riff)
Guitars 1+2
|----------------|
|----------------|
|--57------57----|
|0057003-0057005-
|0035003-0035005-    X3
|00--003-00--005-

Verse 2
Guitar 1
|---------------------------------------------------|
|---------------------------------------------------|
|---------------------------------------------------|
|0~-------------------------------------------------|
|0~-------------------------------------------------|Pickslide
|0~-------------------------------------------------|

Guitar 2
|------------------12~----------------------12~-----|
|---------------------13~15~------------15~-----13~-|
|----------------------------14~--------------------|
|---------------------------------------------------|
|---------------------------------------------------|
|---------------------------------------------------|

Guitar 1
|-------------------------------5---------------------------------|
|-------------------------------5---------------------------------|
|-------------------------------5-------------------------5555552-|
|0-0000000000000003-3333335-55555-0-000000000000003-3333335555552-|
|0-0000000000000003-3333335-55555-0-000000000000003-3333333333330-|
|0-0000000000000003-3333335-55555-0-000000000000003-333333--------|
pm ***************  ******  ****    **************  ******

Guitar 2
|----------------------------------------------------------|
|----------------------------------------------------------|
|7-57-57-9-9-9-7-57-57-9-9-9-7-57-57-9-9-9-10-99-7-7-9-9-2-|
|x-xx-xx-x-x-x-x-xx-xx-x-x-x-x-xx-xx-x-x-x--x-xx-x-x-x-x-2-|
|5-35-35-7-7-7-5-35-35-7-7-7-5-35-35-7-7-7--8-77-5-5-7-7-0-|
|----------------------------------------------------------|
[ Tab from: http://www.guitaretab.com/r/rise-against/75751.html ]
Chorus
Guitar 1
|-----------------------------------------------------------------|
|-----------------------------------------------------------------|
|3-333333333322225-5555555555555-222-222-000-000-7777555533332222-|
|3-333333333333335-5555555555555-222-222-000-000-xxxxxxxxxxxxxxxx-|
|1-111111111111113-3333333333333-000-000-000-000-5555333311110000-|
|-----------------------------------------------------------------|
pm                               **  **  **  **

Guitar 2
|-----------------------------------------------------------------|
|-----------------------------------------------------------------|
|3-333333333322225-5555555555555-222-222-000-000------------------|
|3-333333333333335-5555555555555-222-222-000-000-0000222233335555-|
|1-111111111111113-3333333333333-000-000-000-000-0000222233335555-|
|------------------------------------------------0000222233335555-|
pm                               **  **  **  **

Guitars 1+2
|--------------------------------------------------------------------------|
|--------------------------------------------------------------------------|
|3-333333333322225-5555555555555-222-222-000-000-7777777755555555333333333-|
|3-333333333333335-5555555555555-222-222-000-000-7777777755555555333333333-|
|1-111111111111113-3333333333333-000-000-000-000-5555555533333333111111111-|
|--------------------------------------------------------------------------|
pm                               **  **  **  **

Bridge
Guitar 1
|----------------------------------------------------------------|
|----------------------------------------------------------------|
|----------------------------------------------------------------|
|0-0-0-0-0-0-0-5-3-3-3-3-3-3-3-7-5-5-5-5-5-5-5-3-0-0-0-0-0-0-0-3-|
|0-0-0-0-0-0-0-5-3-3-3-3-3-3-3-7-5-5-5-5-5-5-5-3-0-0-0-0-0-0-0-3-|
|0-0-0-0-0-0-5-3-3-3-3-3-3-3-3-7-5-5-5-5-5-5-5-3-0-0-0-0-0-0-0-3-|

|-----------------------------------------------------------------|
|-----------------------------------------------------------------|
|-----------------------------------------------------------------|
|0-0-0-0-0-0-0-5-3-3-3-3-3-3-3-7-5-5-5-5-5-5-5-3-0-0-0-0-0-0-0-3--| pull whammy
|0-0-0-0-0-0-0-5-3-3-3-3-3-3-3-7-5-5-5-5-5-5-5-3-0-0-0-0-0-0-0-3--| bar up
|0-0-0-0-0-0-0-5-3-3-3-3-3-3-3-7-5-5-5-5-5-5-5-3-0-0-0-0-0-0-0-3~-|

Guitar 2
|-----------------      |--------------|
|----10---6---8---      |----10---6----|
|5-7----7---7---7-  X7  |5-7----7---7--|b
|-----------------      |--------------|
|-----------------      |--------------|
|-----------------      |--------------|

Guitars 1+2
  |----------------------------------------------------------------|
  |----------------------------------------------------------------|
  |----------------------------------------------------------------|
  |00-000-000-0005533-333-333-3337755-555-555-5553300-000-000-0000-|
  |00-000-000-0005533-333-333-3337755-555-555-5553300-000-000-0000-|
  |00-000-000-0005533-333-333-3337755-555-555-5553300-000-000-0000-|
pm ** *** *** ******* *** *** ******* *** *** ******* *** *** ****

Bridge 
'part 2' (when drums speed up again)
Let the bottom string ring throughout this section.
Guitar 1
|----------------------------------------------------------------------------|
|----------------------------------------------------------------------------|
|--------0~------3~------5~--------------------3~------5~------------------2-|
|0~------0~------3~------5~--pickslide-0~------3~------5~------pickslide---2-|
|0~------0~------0~------0~------------0~------0~------0~------------------0-|
|0~------------------------------------0~------------------------------------|

Guitar 2
|----------------------------------------------------------------------------|
|---------------------------------10br8--------------------------------------|
|--------0~------3~------5~------------7~----4-7-9~----7-9-10---9---10-9-5-2-|
|0~------0~------3~------5~------------x-----x-x-x-----x-x--x---x----x-x-x-2-|
|0~------0~------0~------0~------------5~----3-5-7~----5-7--8---7----8-7-3-0-|
|0~--------------------------------------------------------------------------|

Chorus
Guitar 1
|-----------------------------------------------------------------|
|-----------------------------------------------------------------|
|3-333333333322225-5555555555555-222-222-000-000-7777555533332222-|
|3-333333333333335-5555555555555-222-222-000-000-xxxxxxxxxxxxxxxx-|
|1-111111111111113-3333333333333-000-000-000-000-5555333311110000-|
|-----------------------------------------------------------------|
pm                               **  **  **  **

Guitar 2
|-----------------------------------------------------------------|
|-----------------------------------------------------------------|
|3-333333333322225-5555555555555-222-222-000-000------------------|
|3-333333333333335-5555555555555-222-222-000-000-0000222233335555-|
|1-111111111111113-3333333333333-000-000-000-000-0000222233335555-|
|------------------------------------------------0000222233335555-|
pm                               **  **  **  **

Guitars 1+2
|-------------------------------------------------------|
|-------------------------------------------------------|
|3-333333333322225-5555555555555-222-222-000-0007---7~--|
|3-333333333333335-5555555555555-222-222-000-0007---5~--|
|1-111111111111113-3333333333333-000-000-000-0005---3~--|
|-------------------------------------------------------|
pm                               **  **  **  **

Outro
Guitars 1+2
|----------------        |--|
|----------------        |--|
|--57------57----        |--|
|0057003-0057005-        |0-|
|0035003-0035005-    X3  |0-|
|00--003-00--005-        |0-|

Hope it's right :)
Related for Drones tab
Advertisement will be closed in 10 seconds