Song name
# A B C D E F G H I J K L M N O P Q R S T U V W X Y Z

Rivers Cuomo - Blast Off tab

-------------------------------------------------------------------------------
			     Blast Off! - Rivers Cuomo
-------------------------------------------------------------------------------
Tabbed by:TheTroy
Tuning: HALF-STEP DOWN

Verse X2
e|---------------------------------------------------------------------------|
B|---------------------------------------------------------------------------|
G|--------------4-4---------------4-4---------------4-4--6~------------------|
D|-2~--7-7--4~--4-4--2~--7-7--4~--4-4--2~--7-7--4~--4-4--6~--4-4--7~---------|
A|-2~--7-7--4~--2-2--2~--7-7--4~--2-2--2~--7-7--4~--2-2--4~--4-4--7~---------|
E|-0~--5-5--2~-------0~--5-5--2~-------0~--5-5--2~-----------2-2--5~---------|

e|---------------------------------------------------------------------------|
B|---------------------------------------------------------------------------|
G|-5-5-55-55-----------------------------------------------------------------|
D|-5-5-55-55-----------------------------------------------------------------|
A|-3-3-33-33-----------------------------------------------------------------|
E|---------------------------------------------------------------------------|

Chorus
e|---------------------------------------------------------------------------|
B|---------------------------------------------------------------------------|
G|-7-7-7-7-7-7-7-7-----------------------------------------------------------|
D|-7-7-7-7-7-7-7-7-5-5-5-5-5-5-5-5-2-2-2-2-2-2-2-2-7-7-7-7-7-7-7-7-----------|
A|-5-5-5-5-5-5-5-5-5-5-5-5-5-5-5-5-2-2-2-2-2-2-2-2-7-7-7-7-7-7-7-7-----------|
E|-----------------3-3-3-3-3-3-3-3-0-0-0-0-0-0-0-0-5-5-5-5-5-5-5-5-----------|

Repeat Verse

Repeat Chorus

Bridge
e|---------------------------------------------------------------------------|
B|---------------------------------------------------------------------------|
G|-----4--------9--------6---------11----------------------------------------|
D|---------------------------------------------------------------------------|
A|---5---5---10---10---7---7----12----12-------------------------------------|
E|-3-------8---------5-------10----------------------------------------------|

END!!!


| /  slide up
| \  slide down
| h  hammer-on
| p  pull-off
| ~  vibrato
| +  harmonic
| x  Mute note
===============================================================================
Tap to rate this tab
# A B C D E F G H I J K L M N O P Q R S T U V W X Y Z