Song name
# A B C D E F G H I J K L M N O P Q R S T U V W X Y Z

Roadrunner United - The End tab

I see tons of tabs, but all of them are on a 6 string guitar tuned to drop C. I'm pretty
sure its played on a seven string tuned to ADGCFAD, because if you listen to the bridge
you can tell that it is extremely low.. definitely not in drop C lol BUT the rest of the 
song other than the bridge can just be played in drop C or D tuning.

Verse:

Guitar 1
(Clean with high gain)
D|---------------------------------------------------------------------------------------|
A|---------------------------------------------------------------------------------------|
F|---------------------------------------------------------------------------------------|
C|---------------------------------------------------------------------------------------|
G|---------------------------------------------------------------------------------------|
D|-0--0---------------0--3--3------------------3--5---------------7--5--3---------2------|
A|---------------------------------------------------------------------------------------|

Guitar 2
(Clean with high gain)
NOTE: These are all harmonics
D|---------------------------------------------------------------------------------------|
A|----------5-----7---------------5-----7---------------5-----7-------------5-------3----|
F|-------5-----5---------------5-----5-----7---------5-----5-------------------5-------3-|
C|---------------------------------------------------------------------------------------|
G|---------------------------------------------------------------------------------------|
D|---------------------------------------------------------------------------------------|
A|---------------------------------------------------------------------------------------|

This just repeats throughout both verses


Chorus:

Guitar 1
NOTE: These are only the chords to play, I didn't include the timing and how many times
you play each
D|------------------------|
A|------------------------|
F|------------------------|
C|-2----5----7----10----9-|
G|-2----5----7----10----9-|
D|-0----3----5----8-----7-|
A|------------------------|


Repeat Verse and Chorus


Bridge:

Guitar 1
This just keeps repeating during the bridge and solo
D|---------------------------------------------------------------------------|
A|---------------------------------------------------------------------------|
F|---------------------------------------------------------------------------|
C|---------------------------------------------------------------------------|
G|---------------------------------------------------------------------------|
D|-3-3-3-3-3-3-3-3-2-2-2-2-2-2-2-2-2-2-2-2-5-5-5-5-5-5-5-5-5-3-3-3-3-2-2-2-2-|
A|-1-1-1-1-1-1-1-1-0-0-0-0-0-0-0-0-0-0-0-0-3-3-3-3-3-3-3-3-3-1-1-1-1-0-0-0-0-|

On the last time play this instead
D|-----------------------------------------------------------------------------|
A|-----------------------------------------------------------------------------|
F|-----------------------------------------------------------------------------|
C|---------------------------------------------------------------------------2-|
G|---------------------------------------------------------------------------2-|
D|-3-3-3-3-3-3-3-3-2-2-2-2-2-2-2-2-2-2-2-2-5-5-5-5-5-5-5-5-5-5-5-5-5-5-5-5-5-0-|
A|-1-1-1-1-1-1-1-1-0-0-0-0-0-0-0-0-0-0-0-0-3-3-3-3-3-3-3-3-3-3-3-3-3-3-3-3-3---|

Guitar 2
D|-----------------------------------------------------------------------------------|
A|-----------------------------12----------15---15-15\10-10h12---12-10---------------|
F|-9-----11---12----9--11--12------14----------------------------------12-11-9-12-11-|
C|-----------------------------------------------------------------------------------|
G|-----------------------------------------------------------------------------------|
D|-----------------------------------------------------------------------------------|
A|-----------------------------------------------------------------------------------|

D|-15---15-15-14----------15--14---------------15---15-15-14----------15-14--------|
A|----------------12--------------15--12----------------------12------------15/24--|
F|---------------------------------------------------------------------------------|
C|---------------------------------------------------------------------------------|
G|---------------------------------------------------------------------------------|
D|---------------------------------------------------------------------------------|
A|---------------------------------------------------------------------------------|


The slow Part is basically just the same as the verse


Last Chorus:

Guitar 1
D|------------------------------------|
A|------------------------------------|
F|------------------------------------|
C|-2-2------5-5------7-7------10----9-|
G|-2-2------5-5------7-7------10----9-|
D|-0-0------3-3------5-5------8-----7-|
A|------------------------------------|

Then it goes back to repeating the normal chorus until the end of the song. ENJOY! ;P
Tap to rate this tab
 
# A B C D E F G H I J K L M N O P Q R S T U V W X Y Z