Guitaretab - guitar tabs
Song name
# A B C D E F G H I J K L M N O P Q R S T U V W X Y Z

Roadrunner United - Army Of The Sun tab

-------------------------------------------------------------------------------
			     Army of the Sun- Roadrunner United
-------------------------------------------------------------------------------
Tabbed by:Zach
Email:ZCFichter@gmail.com

Tuning:Drop D
It's actually drop d 2 steps down, but this is the exact same with the lowest notes an 
up.

Intro
e|-------------------------------------------------------------------------|
B|-------------------------------------------------------------------------|
G|-------------------------------------------------------------------------|
D|------------777---666----------------------------------------------------|
A|---444------------------777---444--------------777------------555--444---|
D|--------------------------------------000--------------000---------------|

Intro continued. 4x
e|---------------------------------------------------------------------------|
B|---------------------------------------------------------------------------|
G|--------------------------------------2-2-2--------------------------------|
D|--4-4-4-7-7-7-6-6-6-------------0-0-0------4-4-4---------------------------|
A|--4-4-4-------------7-7-7-4-4-4-0-0-0------2-2-2-5-5-5-4-4-4-0-------------|
D|--4-4-4-------------------4-4-4-0-0-0--------------------------------------|

Verse
  I was elecrified....
e|---------------------------------------------------------------------------|
B|---------------------------------------------------------------------------|
G|---------------------------------------------------------------------------|
D|---------------------------------------4-4-4---4-4-4---4-4-4---------------|
A|-2/5-5-5-2/5-5-5-2/5-5-5--2/5-5-5------4-4-4---4-4-4---4-4-4---------------|
D|-------------------------------------0-4-4-4-0-4-4-4-0-4-4-4---------------|
 the 2/5 sounds lower in the song because it's an octave lower.

e|---------------------------------------------------------------------------|
B|---------------------------------------------------------------------------|
G|---------------------------------------------------------------------------|
D|-----------------------------------4-4-4---4-4-4---7-7-7---6-6-6-----------|
A|-2/5-5-5-2/5-5-5-2/5-5-5-2/5-5-5---4-4-4---4-4-4---7-7-7---6-6-6-----------|
D|---------------------------------0-4-4-4-0-4-4-4-0-7-7-7-0-6-6-6-----------|
                               Something like this
e|---------------------------------------------------------------------------|
B|---------------------------------------------------------------------------|
G|---------------------------------------------------------------------------|
D|----------------------------------9-9---9-9---9-9---9-9/10/11/12-----------|
A|2/5-5-5-2/5-5-5-2/5-5-5-2/5-5-5---9-9---9-9---9-9---9-9/10/11/12-----------|
D|--------------------------------0-9-9-0-9-9-0-9-9-0-9-9/10/11/12-----------|

Chorus 4x
  everlasting.....setting sun
e|---------------------------------------------------------------------------|
B|---------------------------------------------------------------------------|
G|--------------------------------------2-2-2--------------------------------|
D|--4-4-4-7-7-7-6-6-6-------------0-0-0------4-4-4---------------------------|
A|--4-4-4-------------7-7-7-4-4-4-0-0-0------2-2-2-5-5-5-4-4-4-0-------------|
D|--4-4-4-------------------4-4-4-0-0-0--------------------------------------|

Verse
  I'm so mesmerized....
e|---------------------------------------------------------------------------|
B|---------------------------------------------------------------------------|
G|---------------------------------------------------------------------------|
D|---------------------------------------4-4-4---4-4-4---4-4-4---------------|
A|-2/5-5-5-2/5-5-5-2/5-5-5--2/5-5-5------4-4-4---4-4-4---4-4-4---------------|
D|-------------------------------------0-4-4-4-0-4-4-4-0-4-4-4---------------|


e|---------------------------------------------------------------------------|
B|---------------------------------------------------------------------------|
G|---------------------------------------------------------------------------|
D|-----------------------------------4-4-4---4-4-4---7-7-7---6-6-6-----------|
A|-2/5-5-5-2/5-5-5-2/5-5-5-2/5-5-5---4-4-4---4-4-4---7-7-7---6-6-6-----------|
D|---------------------------------0-4-4-4-0-4-4-4-0-7-7-7-0-6-6-6-----------|
[ Tab from: http://www.guitaretab.com/r/roadrunner-united/93235.html ]
e|---------------------------------------------------------------------------|
B|---------------------------------------------------------------------------|
G|---------------------------------------------------------------------------|
D|----------------------------------9-9---9-9---9-9---9-9/10/11/12-----------|
A|2/5-5-5-2/5-5-5-2/5-5-5-2/5-5-5---9-9---9-9---9-9---9-9/10/11/12-----------|
D|--------------------------------0-9-9-0-9-9-0-9-9-0-9-9/10/11/12-----------|

Chorus 4x
  everlasting.....setting sun
e|---------------------------------------------------------------------------|
B|---------------------------------------------------------------------------|
G|--------------------------------------2-2-2--------------------------------|
D|--4-4-4-7-7-7-6-6-6-------------0-0-0------4-4-4---------------------------|
A|--4-4-4-------------7-7-7-4-4-4-0-0-0------2-2-2-5-5-5-4-4-4-0-------------|
D|--4-4-4-------------------4-4-4-0-0-0--------------------------------------|

            Because that slide isn't possible, the note in ( ) is the one you can play. 
use two guitars.
e|---------------------------------------------------------------------------|
B|---------------------------------------------------------------------------|
G|--------------(4)----------(2/1/4)-----------------------------------------|
D|-0--7-6-4--7-6/9----0-7-6-4-7/6/9------------------------------------------|
A|-0------4-----------0-----2------------------------------------------------|
D|-0------4-----------0------------------------------------------------------|

Break
e|---------------------------------------------------------------------------|
B|---------------------------------------------------------------------------|
G|----------------------------------------------0----------------------------|
D|-2/4-4-4----4-0--2/4-4-7--7-2--2/4-4-4--4-4-4-2----------------------------|
A|-2/4-4-4----4-0--2/4-4-7--7-2--2/4-4-4--2-2-2------------------------------|
D|-2/4-4-4----4-0--2/4-4-7--7-2--2/4-4-4-------------------------------------|
                                         * * * * * * * *
e|---------------------------------------------------------------------------|
B|---------------------------------------------------------------------------|
G|----------------------------------------0-0-0-0-0-0-0-0--------------------|
D|-2/4-4-4----4-0--2/4-4-7--7-2--2/4-4-4--2-2-2-2-2-2-2-2--------------------|
A|-2/4-4-4----4-0--2/4-4-7--7-2--2/4-4-4-------------------------------------|
D|-2/4-4-4----4-0--2/4-4-7--7-2--2/4-4-4-------------------------------------|


e|---------------------------------------------------------------------------|
B|---------------------------------------------------------------------------|
G|---------------------------------------------------------------------------|
D|-4-4-4-4--44--7-7-7-7--77--4-4-4-4--44--7-7-7-7--7---11--1111-9------------|
A|-5-5-5-5--55--9-9-9-9--99--5-5-5-5--55--9-9-9-9--9---12--1212-11-----------|
D|---------------------------------------------------------------------------|
                                        I don't know this part, but repeating
                                        the original works.
e|---------------------------------------------------------------------------|
B|---------------------------------------------------------------------------|
G|---------------------------------------------------------------------------|
D|-4-4-4-4--44--7-7-7-7--77--4-4-4-4--44-------------------------------------|
A|-5-5-5-5--55--9-9-9-9--99--5-5-5-5--55-------------------------------------|
D|---------------------------------------------------------------------------|

Chorus 4x
e|---------------------------------------------------------------------------|
B|---------------------------------------------------------------------------|
G|--------------------------------------2-2-2--------------------------------|
D|--4-4-4-7-7-7-6-6-6-------------0-0-0------4-4-4---------------------------|
A|--4-4-4-------------7-7-7-4-4-4-0-0-0------2-2-2-5-5-5-4-4-4-0-------------|
D|--4-4-4-------------------4-4-4-0-0-0--------------------------------------|

Outro
e|---------------------------------------------------------------------------|
B|---------------------------------------------------------------------------|
G|--------------(4)----------------------------------------------------------|
D|-0--7-6-4--7-6/9---2-h4-4-4------------------------------------------------|
A|-0------4----------2-h4-4-4------------------------------------------------|
D|-0------4----------2-h4-4-4------------------------------------------------|
Related for Army Of The Sun tab
×
Army Of The Sun