Song name
# A B C D E F G H I J K L M N O P Q R S T U V W X Y Z

Robert De Visee - Suite No 9 For Guitar In Dm - 6a Minuet 1 tab

#----------------------------------PLEASE NOTE--------------------------------#
#This file is the author's own work and represents his interpretation of the  #
#song. You may only use this file for private study, scholarship, or research.#
#-----------------------------------------------------------------------------#

===============================================================================
         Title : Menuet I from Suite in D Minor
        Artist : Robert de Visee
Transcribed by:  Kevin J. Manges, braumstr@bright.net
                 (formerly braumeister@centuryinter.net and Kevinm2556@aol.com)
Downloaded From: http://members.tripod.com/~Braumeister/index.htm
           Note: Best Viewed in Courier or Courier New 10 pt.
                 See accompanying MIDI/MP3 file also at this site.
                 Play this with the other deVisee Minuet on this page.
                 Play this once, the other minuet, and this one time
                 though again (w/o repeats).
        Updated: 12/23/98 2323
===============================================================================


                                         Minuet I


Transcribed by Kevin J. Manges                               Robert de Visee



E||---2----3--2--0--2--|-------5--------|--2--------2--3--|--0--------0----|
B||---3----------------|--3----5--------|--3--------0-----|--2-------------|
G||*--2----------------|----------------|--2--------0-----|--2-------------|
D||*--0----------------|----------------|--0--------------|----------------|
A||--------------------|-------4--------|-----------------|--0-------------|
E||--------------------|----------------|-----------------|----------------|



--2----3--2--0--2--|-------5--------|--2--------2--3--|--0-------------||
--3----------------|--3----5--------|--3--------0-----|--2-------------||
--2----------------|----------------|--2--------0-----|--2------------*||
--0----------------|----------------|--0--------------|---------------*||
-------------------|-------4--------|-----------------|--0-------------||
-------------------|----------------|-----------------|----------------||



---0----0--2--3----|--2---------------|--0--2--3--2--0-----|------------------|
---2---------------|--3---------------|--0--------------3--|--2---------------|
*------------------|--2-------0--2----|--0-----------1-----|--2----1--2-------|
*------------------|--0----4----------|--------------------|------------------|
---0---------------|------------------|--------------------|-------------0----|
-------------------|------------------|--------------------|------------------|



--0----0--2--3----|--2----3--2--0-----|--0----2--0--------|------------------||
--2---------------|----------------3--|-------------3--2--|--2--3--3---------||
------------------|--2----------------|--0----------------|--2-----2--------*||
------------------|--0----------------|-------------------|--0-----0--------*||
--0---------------|-------------------|--0----------------|------------------||
------------------|-------------------|-------------------|------------------||
Tap to rate this tab
# A B C D E F G H I J K L M N O P Q R S T U V W X Y Z