Song name
# A B C D E F G H I J K L M N O P Q R S T U V W X Y Z

Robert De Visee - Suite No 9 For Guitar In Dm - 6b Minuet 2 tab

#----------------------------------PLEASE NOTE--------------------------------#
#This file is the author's own work and represents their interpretation of the#
#song. You may only use this file for private study, scholarship, or research.#
#-----------------------------------------------------------------------------#

===============================================================================
          Title: Menuet II from the Suite in D Minor
         Artist: Robert de Visee
 Transcribed by: Kevin J. Manges, braumstr@bright.net 
                 (formerly braumeister@centuryinter.net & Kevinm2556@aol.com)

Downloaded from: http://members.tripod.com/~Braumeister/index.htm
           Note: This piece plays well with almost any/all of de Visee's
                 Minuets. Notice the sliding of 3rd & 4th fingers in 
                 msrs 12-15. Keep them put. See MIDI/MP3 here also.
                 The midi does NOT do it justice.
     Difficulty: Not too difficult.
         Update: 1 May 99 0030
===============================================================================  

                                   Menuet II

Transcribed by Kevin J. Manges                               Robert de Visee


(1)   V
E||---5--------------|------------------|----------------|--------------------|
B||---6\---5----8----|/-6----5--6-------|--5-------------|-----------5--6--8--|
G||*--7\---6---------|/-7----------7----|--3----6--------|--7--6--7-----------|
D||*-----------------|-------7----/9----|--5----7--------|--0-----------------|
A||------------------|------------------|----------------|--------------------|
E||------------------|------------------|----------------|--------------------|
      1         4            1  2  1       4                3  2  3  1  2  4
      2    2            2    3     3       1    2
      3    3            3                  3    3
                                                 

(5) V                                   III   II
E|--5---------3----|--1----0--1-------|-----------------|----------------||
B|--6----5---------|--3----2-----3----|--5----2------3--|--3-------------||
G|-----------------|------------------|--3----2---------|--2------------*||
D|-----------------|--0---------------|-----------------|--0------------*||
A|--5----4---------|-------0-----1----|-------0---------|----------------||
E|-----------------|------------------|--3--------------|----------------||
    1    4    1       1    2  1  4       4    1      2     2
    2    2            3          1       1    1            1
    1                                    1


(9)  V--------  VI---    III-------  V---     I-------------- 
E|---5----5-----6------|--3----3-----5-----|--1----1-----3-----|
B|---6----6--------10--|--5----5--------8--|--3----3--------6--|
G|*-------------7------|-------------5-----|-------------3-----|
D|*--------------------|-------------------|-------------------|
A|---5----5------------|--3----3-----0-----|--1----1--0--------|
E|-----------8--6------|----------6--------|-------------3-----|
     1       4  1   4     1       4  1  4     1             4
     2          2         3          1        4
     1          1         1                   1


(12)III------------                       I                     III--------  
E|-------------------|-----------------|------------0----|-------3-----------|
B|--5-------3--------|--6----6\-----5\-|--3/-----3-------|--6-------6--5-----|
G|--5----------5-----|--5\-------------|--3/-------------|--5----3--------7--|
D|-------------------|-----------------|-----------------|-------------------|
A|--3----3-----------|--0--------------|--1--------------|--0----------------|
E|----------------6--|-----------------|-----------------|-------3-----------|
    4       1  3  4     4           4     4      4          4    1  4  3  4  
    3                   3                 3                 3
    1                                     1


(16)II-------------                                                       
E|-------------------|--5---------3----|------------------|----------------|
B|--2----------2-----|--6----5---------|--6----5--6-------|--5-------------|
G|-------2--4-----2--|--7----6---------|--7----------7----|--3----6--------|
D|--2----------------|-----------------|-------7-----9----|--5----7--------|
A|--0----------------|-----------------|------------------|----------------|
E|-------------------|-----------------|------------------|----------------|
    1       3            For 17-20, see measures 1 thru 4




(20)                     V                 III--               III--  II
E|--------------------|--5---------3--5--|--3-----0--1-------|-----------------|
B|-----------5--6--8--|--6----5----------|--3\-6--2/----3----|--6--5--2-----3--|
G|--7--6--7-----------|------------------|-------------------|--3-----2--------|
D|--0-----------------|------------------|--0----------------|-----------------|
A|--------------------|--5----4----------|--------0-----1----|--------0--------|
E|--------------------|------------------|-------------------|--3--------------|
                         1    4    1  4     1  4  2  1  3       4  3  1     2
                         2    2             1           1       1     1
                         1                                      1


(24)              
E|----------------||
B|--3-------------||
G|--2------------*||
D|--0------------*||
A|----------------||
E|----------------||
    2
    1

De Visee: Menuet II from the Suite in D Minor

Tap to rate this tab
# A B C D E F G H I J K L M N O P Q R S T U V W X Y Z