Song name
# A B C D E F G H I J K L M N O P Q R S T U V W X Y Z

Robert De Visee - Prelude In Dm tab

           |---------------------------------------|
           |              Fetisov G.A.             |
           |     THE READER FOR A GUITAR PLAYER    |
           |=======================================|
           | Prelude                               |
           |                  Robert de Visee      |
           |---------------------------------------|

*************************************************************************
correction to measure 4 - second C# changed from C (2nd string, 2nd fret)
info from Seth Yastrov - updated by Weed - weed@wussu.com - 9 June 2006
*************************************************************************

==================================================================
4/4  |   Moderaro  |  D minor
==================================================================
                           SYMBOLS
      |    quarter note             h   hammer-on
      H    half note                p   pull-off
    : W    Whole note               ==  tie
    : /    slide                   (1)  ghost note
    :==    barre                    `/  eighth rest
    vibr.  vibrato                   >
                                     <  arpegio 
                                     >
==================================================================

       RHF-i-m-a-|-m---i-m---a-------|---i-m-i-a-m-----|
       RHF-------|---p-p-----p-m---i-|-p---------------|
           _____       ___ III         _______ _______
           | | |   |   | | : H         | | | | | |h| |
         E-----0-|-1---1-3-:/5========(5)--5-3-8-----8-|
         B---3---|---------:---5=3---|---3-------5=6---|
         G-2-----|---------:-------5-|-3---------------|
         D-------|-----0-2-:-3-------|---------7-------|
         A-------|---0-----:==-------|-----------------|
         E-------|-------------------|-----------------|
                  `/ | | |   H |p| |   H       H
                     -----     -----
       LHF 2 4   | 1     4     3     |         4       |
       LHF       |       2           | 1       3       |

==================================================================
==================================================================

RHF-----m---------m---i-|-----m---i---i---m-|-ami-m-i---m-i---m-|
RHF--p----------p-------|---p-------p-------|---p---------------|
        _____     _____       _____   _____     _______ _______
3   V`/ |h| |III`/|h| |  II`/ |h| |`/ |h| |     | | |p| | |p| |
  E-:---5=6---:---3=5---|-:---2=3---------0-|-<-1-0-------------|
  B-:-------5-:-------3-|-:-------2---2=3---|->-3---3=1-0-1=0---|
  G-:---------:---------|-:-----------------|-<-2-------------2-|
  D-:-5-------:-3-------|-:-2-------0-------|->-0-------1-------|
  A-==--------:==-------|-:==---------------|-------------------|
  E---------------------|-------------------|-------------------|
      H         H           H       H           H       H

LHF                     |                   |   1               |
LHF       2 1     1 3 1 |       2     1 3   |   4   4 1   2     |
LHF   1         1       |   1     1         |   2       1       |

==================================================================
==================================================================

   RHF-i-p-p---p-i-p-m-|-p-i---m---i-m-i-|-p-m-----i-----m-|
                     __    _____ _______     _____ _______
   6   H      `/ |   |  `/ |h| |h| | | |  `/ |h|h| |h|h| |
     E-----------------|-------------0---|---5=6=8-0=2=3-5-|
     B-----------------|-------0=2-3---2-|-----------------|
     G-1---------2---1-|---1=2-----------|-----------------|
     D-2-3-2=0---------|-----------------|-0---------------|
     A---------3---2---|-0---------------|-----------------|
     E-----------------|-----------------|-----------------|
       | | |p| |   |     W                 W
       -------
   LHF 1         2   1 |   1     2 3     |   1 2 4   1 2 4 |
   LHF 2 3     3       |                 |                 |

==================================================================
==================================================================

              RHF-i---m-----i-m-i-|-m---------||
              RHF-p-------p-------|-p---------||
                  _______   _____  vibr.
              9   | | | |`/ | | |   H
                E-6=5\3=1-----0---|-----------||
                B-----------3---2-|-3---------||
                G-0---------------|-----------||
                D-----------------|-0---------||
                A---------0-------|-----------||
                E-----------------|-----------||
                  H       H         H

              LHF 4 3   1   3   2 | 3         ||
Tap to rate this tab
# A B C D E F G H I J K L M N O P Q R S T U V W X Y Z