Song name
# A B C D E F G H I J K L M N O P Q R S T U V W X Y Z

Rodrigo Y Gabriela - Oogie Boogies Song tab

oogie boogie's song basics (Tuned to E Flat)

Transcribed by Zach H.

Not the best quality only the basic version of it and I think the
only version I've seen but could be wrong.... anyways enjoy!

part 1(after guitar body taps and muted string slapping)

(4 times)

[------------------------------------------------]
[------------------------------------------------]
[------------------------------------------------]
[------------------------------------------------]
[-9-7----------------9-------------9-------------]
[-----10-9-7--7-9-10---8--7-7-9-10---8-7-2s7-----]

ending with Cm chord strummed

[--7-----]
[--7-----]
[--7-----]
[--9-----]
[--9-----]
[--7-----]

part 2

[-----------------------------------------------------------]
[-----------------------------------------------------------]
[-------------7-7-6-6---------------------------------------]
[---------7-7---------7-7-10-10-5-5-----------7-8-7-6-5-----]
[-5-5-8-8----------------------------5--7--8----------------]
[-----------------------------------------------------------]

Part 3


[----------------------------------------------------------]
[----------------------------------------------------------]
[------6-9-6-------6-9-6--------9-12-9---------9-12-9------]
[--5-8-------8-5-8-------8-8-11--------11-8-11--------8----]
[----------------------------------------------------------]
[----------------------------------------------------------]

Part 4

[---------------------------------------------------------------------------]
[-5-7-8-5-----4-5-----------5-4----7-8-7-8----------------------------------]
[---------5-7-----4-4-5-4------------------9-8-9--4-2-4-0-2-4-5-4-2---------]
[-------------------------7-----------------------------------------5-4-----]
[---------------------------------------------------------------------------]
[---------------------------------------------------------------------------]

Part 5

[-------------------------------------------------------]
[-------------------------------------------------------]
[--4-5-2--4-5-2--0-2----0-2-----------------------------]
[--------------------3------3---3-3---------3-0---------]
[-----------------------------------3-----1-----1-0-----]
[-------------------------------------5-1---------------]

Part 6

[-------------------------------------------------]
[-------------------------------------------------]
[-6-------------6---------------------------------]
[-6-------6-----6-------6-----------6-7-4-6-------]
[-4-4-6-7---5---4-4-6-7---5-0-4-6-7---------7-4---]
[-------------------------------------------------]

[------------------------------------------------------------]
[--7---------------------------------------------------------]
[--6--------6----6-------------------------------------------]
[--4--4-6-7---5--6-------6---4-6-2-4-1-2---------------------]
[----------------4-4-6-7---5-------------4-4-6-7-4-6-3-4-----]
[------------------------------------------------------------]

Part 7

[-------------------------12-11---15-15-15-16--------------]
[---------------------------------------------17-16-14-----]
[-------9-8------9-6--9-8----------------------------------]
[----------------------------------------------------------]
[--7-6------7-4--------------------------------------------]
[----------------------------------------------------------]

Part 8

I frankly improved this little speed section with a basic minor/harmonic minor run up 
down the strings in Dm (basic example)

[------------------------------------------------]
[------------------------------------------------]
[--------------4-6-8-9-9-6-5---------------------]
[--------4-6-7---------------7-6-4---------------]
[--4-6-7---------------------------7-6-3---------]
[------------------------------------------------]

Guitar 1                    Guitar 2 (same time)

[------------------------][------------------------]
[------------------------][------------------------]
[------------------------][--------5-7-3-5-3-------]
[--------7-8--5-7--------][--3-5-7-----------3-----]
[--5-7-8----------8-5----][------------------------]
[------------------------][------------------------]

play

part 7

part 2

part 4

and part 5.

what are you going to do?
I'm going to do the best I can...

Part 9 (first notes muted)

[-----------------------------------------------------]
[-----------------------------------------------------]
[-----------------------------------------------------]
[-----------------------------------------------------]
[---8-8-8-8-8-8-8-----8-8-6-8-4-------7-7-6-7-4-------]
[-----------------6-9-----------6-5-9-----------5-----]

Part 10

[-----12-10--------------------------------]
[--10-------13-12-10-----------------------]
[--------------------12-10-----------------]
[--------------------------10---8----------]
[----------------------------10---10-------]
[------------------------------------------]

Part 11

[------10-9-10-----11-10-11----------------------]
[------------------------------------------------]
[------------------------------------------------]
[----------------------------------8-6-----------]
[--5-5---------6-6----------7-7-8------9-8-------]
[------------------------------------------------]


Part 12
After I also improvise with just slapping chords
(though there's alot of detail going on sorry I was not
able to decipher them)

[----------------------------------]
[----------------------------------]
[--8--8-----8----------------------]
[--8--8--6--8-------7-8-5-7--------]
[--6--6--6--6--5-7-8--------8-5----]
[--------4-------------------------]

Part 13

[----------------------------]
[----------------------------]
[-8--------------------------]
[-8-------8---9-8-7-6--------]
[-6-6-8-9---6-7-6-5-4--------]
[----------------------------]

Part 14

[--------------------------------------------------------------------------]
[-7-9-10-7-----6-7-----------7-6--9-10-9-10--------------------------------]
[----------7-9-----6-6-7-6-4----------------11-10-11-6-4-6---4-6-7-6-4-----]
[----------------------------------------------------------7-----------7-6-]
[--------------------------------------------------------------------------]
[--------------------------------------------------------------------------]

Part 15

[-------------------------------------------------7----]
[-------------------------------------------------8----]
[--6-7-4--6-7-4-----------------------------------9----]
[---------------------2-3-4-3-4-5-4-5-4-5--2--4---9----]
[-------------------------------------------------7----]
[------------------------------------------------------]
Tap to rate this tab
# A B C D E F G H I J K L M N O P Q R S T U V W X Y Z