Song name
# A B C D E F G H I J K L M N O P Q R S T U V W X Y Z

Rodrigo Y Gabriela - 11 11 tab

Intro main guitar

e|-----------------------------------|
b|-----------------------------------|
g|------7----------------------------|
d|-5-4----5--5-4--7-5--5-4--7-5--9---|
a|-----------------------------------|
e|-----------------------------------|

e|-----------------------------------|
b|-----------------------------------|
g|------7----------------------------|
d|-5-4----5--5-4--7-5--5-4--7-5--4---|
a|-----------------------------------|
e|-----------------------------------|

e|-----------------------------------|
b|-----------------------------------|
g|------7----------------------------|
d|-5-4----5--5-4--7-5--5-4--7-5--9---|
a|-----------------------------------|
e|-----------------------------------|

e|-----------------------------------|
b|-----------------------------------|
g|------7----------------------------|
d|-5-4----5--5-4--7-5--5-4--4--------|
a|----------------------------7--6---|
e|-----------------------------------|   twice through

SOLO (1:18)

e|--------------------------------------------------------------|
b|--------12~~~----8--10~~-----10--12---------------10br--8-----|
g|-9~~---------------------------------9--------9------------9--|
d|--------------------------------------------------------------|
a|--------------------------------------------------------------|
e|--------------------------------------------------------------|

e|-----------------------------------------------------------|
b|-7--7-8-7-------------------------------------------12~~~--|
g|-7--------7---7/9~~--------------------7-----9~~-----------|
d|------------9---------------------7/9-----9----------------|
a|-----------------------------------------------------------|
e|---------------------------0~~~----------------------------|

e|------------------------------------------------------|
b|-12--15--8~~-------10--12--------------12b--b-br-10---|
g|---------------------------9--------9-----------------|
d|------------------------------------------------------|
a|------------------------------------------------------|
e|------------------------------------------------------|

e|----------------------------------------|
b|----------------------------------------|
g|-7-9--9--9--7-9--9--9--7-9--9-9---------|
d|---------------------------------9--9---|
a|----------------------------------------|
e|----------------------------------------|

e|---------------------------------12----------15---14~~--|
b|--------------------12--x--------------12---------------|
g|--------9--x---------------9--x-------------------------|
d|--------------9--x--------------------------------------|
a|--7--x--------------------------------------------------|
e|--------------------------------------------------------|

e|--14br---10----------15--14~~---14br--8-----10--7-8-7-5-7--|
b|-----------------12----------------------------------------|
g|-----------------------------------------------------------|
d|-----------------------------------------------------------|
a|-----------------------------------------------------------|
e|-----------------------------------------------------------|

e|-7-8-7-5-7---7/3--3---2-3-2-0----------------------------|
b|------------------------------3-0------------------------|
g|------------------------------------7/9------------------|
d|---------------------------------------------------------|
a|------------------------------------5/7------------------|
e|-------------------------------------------0---2---3--0--|

e|------------------------------------------------------------|
b|------------------------------------------------------------|
g|------------------------------------------------------------|
d|---4b--b-br-2~~-----2-----0~~------2-----0--2---------------|
a|-----------------------2--------------2--------2--0---------|
e|-----------------------------------------------------3b--0--|

e|-----------<7>--------|
b|------<7>--<7>--------|
g|-<7>--<7>-------------|
d|-<7>------------------|
a|----------------------|
e|----------------------|

Repeat this next section four times

e|------------------------------------------------------|
b|-----7---8-----8--12------7---8--------12b--b-br--10--|
g|-9--------------------9-------------9-----------------|
d|------------------------------------------------------|
a|------------------------------------------------------|
e|------------------------------------------------------|

e|----------------------------------------|
b|----------------------------------------|
g|-7-9--9--9--7-9--9--9--7-9--9-9---------|
d|---------------------------------9--9---|
a|----------------------------------------|
e|----------------------------------------|

Repeat Intro Main Guitar three times (fade out)

Enjoy!
Tap to rate this tab
# A B C D E F G H I J K L M N O P Q R S T U V W X Y Z