Song name
# A B C D E F G H I J K L M N O P Q R S T U V W X Y Z

Rodrigo Y Gabriela - Hora Zero tab

|-------------------------|------------------------|-
|---------------12---11---|---------------11---8-7-|-
|--9-8--------9----9----9-|--9-8--------9----9-----|-
|------10-9-8-------------|------10-9-8------------|-
|-------------------------|------------------------|-
|-------------------------|------------------------|- 5 times

|--------------------------------------|--7p6--------6-7-8-7-6-7-8-7-|-
|------------------7-8p7--------7-8-10-|-------8-7-8-----------------|-
|--9p-8---------8-9--------9-8-9-------|-----------------------------|-
|------10-9-10-------------------------|-----------------------------|-
|--------------------------------------|-----------------------------|-
|--------------------------------------|-----------------------------|-
then play the first riff again
Tap to rate this tab
# A B C D E F G H I J K L M N O P Q R S T U V W X Y Z