Song name
# A B C D E F G H I J K L M N O P Q R S T U V W X Y Z

Rodrigo Y Gabriela - Satori tab

Help us improve GuitareTab! Take a short survey!
I gave the chords Gabriela strums above the lead


Part 1:

  Bm7                    E7
e|---------------------------------------------------------------------------|
B|---------------------------------------------------------------------------|
G|------------7-7-6--------------------7-6----9------------------------------|
D|-9-9---7-9--------9-7---9-9-----7-9------7----9----------------------------|
A|-----9-----------------------9---------------------------------------------|
E|---------------------------------------------------------------------------|


  Bm7                    E7           F#
e|---------------------------------------------------------------|
B|---------------------------------------------------------------|
G|------------7-7-6--------------------6-------------------------|
D|-9-9---7-9--------9-7---9-9-----7-9----9--7--------------------|
A|-----9-----------------------9--------------9------------------|
E|---------------------------------------------------------------|


  Bm7                    E7                        Bm7                   E7
e|------------------------------------------------------------------------------------|
B|------------------------------------------------------------------------------------|
G|------------7-7-6--------------------7-6----9---------------7-7--6------------------|
D|-9-9---7-9--------9-7---9-9-----7-9------7----9---9-9---7-9---------7---------------|
A|-----9-----------------------9------------------------9---------------9-9-8-7-6-5-4-|
E|------------------------------------------------------------------------------------|


Part 2:

    Bm             Am               Bm              Am                             Bm7
e|---------------------------------------------------------7-8--7h8p7-7-8-10-12-15-14-|
B|------------------------8-7-10-8-7-7b------------------8----------------------------|
G|---------7-----7--9-----------------------7-----7----9------------------------------|
D|------9----9-9------10-----------------9----9-9---7---------------------------------|
A|---9--------------------------------------------------------------------------------|
E|------------------------------------------------------------------------------------|


  Bm7             Am7                 Bm7                   Am7     
e|---7-10-7--7-10-12---15-14-17-15-14-14h15p14--7-10-7-7-10----10------8-----7-----|
B|----------------------------------------------------------10----10-8---8-7---7-5-|
G|---------------------------------------------------------------------------------|
D|---------------------------------------------------------------------------------|
A|---------------------------------------------------------------------------------|
E|---------------------------------------------------------------------------------|


Part 3:
palm mute

e|---------------------------------------------------------------------------|
B|-0-5-0-5-0-5-0-5-0-0-5--3-5-3-5-3-5-3-5-3-3-5---1-5-1-5-1-5-1-5------------|
G|---------------------------------------------------------------------------|
D|---------------------------------------------------------------------------|
A|---------------------------------------------------------------------------|
E|---------------------------------------------------------------------------|

e|---------------------------------------------------------------------------|
B|-5-0-0--5-0-0-5-0-0-5-0-5--------------------------------------------------|
G|---------------------------------------------------------------------------|
D|---------------------------------------------------------------------------|
A|---------------------------------------------------------------------------|
E|---------------------------------------------------------------------------|

                                                                   Am
e|---------------------------------------------------------------------------|
B|-0-5-0-5-0-5-0-5-0-0-5--3-5-3-5-3-5-3-5-3-3-5---1-5-1-5-1-5-1-5------------|
G|-----------------------------------------------------------------2-2-2-2-2-|
D|---------------------------------------------------------------------------|
A|---------------------------------------------------------------------------|
E|---------------------------------------------------------------------------|

part 4:

    Em                         Dm
e|---------------------------------------------------------------------------|
B|---------------------------------------------------------------------------|
G|--9-9-9-9-9-9--12-12-12-12-12-10-10-10-10-10--14-14-14-14-14---------------|
D|---------------------------------------------------------------------------|
A|---------------------------------------------------------------------------|
E|---------------------------------------------------------------------------|


  Em                              Dm
e|---------------------------------------------------------------------------|
B|---------------------------------------------------------------------------|
G|-12-12-12-12-12-16-16-16-16-16--14-14-14-14-14--10-10-10-10-10-------------|
D|---------------------------------------------------------------------------|
A|---------------------------------------------------------------------------|
E|---------------------------------------------------------------------------|

                              
Part 5:

   Em                        Em
e|------7-----------7--------------7----------7------------------------------|
B|--5-8---------5-8------5----5-8---------5-8-------5------------------------|
G|---------7-8---------7---8---------7-8---------7----8----------------------|
D|---------------------------------------------------------------------------|
A|---------------------------------------------------------------------------|
E|---------------------------------------------------------------------------|



      D                                B
e|--------5------5-----5-----5-----5-----------------------------------------|
B|------7------7-----7-----7-----7-------------------------------------------|
G|----7------5-----4-----4-----5--------4-4-2-2-2----------------------------|
D|---------------------------------------------------------------------------|
A|---------------------------------------------------------------------------|
E|---------------------------------------------------------------------------|


part 6:

     Em                                                 Dm
e|----------5-7---------5------------5-7---------5---------------------------|
B|---5-7-8-------5-7-8-----5---5-7-8------5-7-8----5-----8-8-6-6-------------|
G|----------------------------------------------------4----------------------|
D|---------------------------------------------------------------------------|
A|---------------------------------------------------------------------------|
E|---------------------------------------------------------------------------|

   Dm
e|---------------------------------------------------------------------------|
B|--5-6-5--------------------------------------------------------------------|
G|-------------7--9-7-4-5-7-5-2-4--------------------------------------------|
D|----------7----------------------------------------------------------------|
A|---------------------------------------------------------------------------|
E|---------------------------------------------------------------------------|

     Em                                                   Dm
e|----------5-7---------5------------5-7---------5-7-8-10-10--------------------------|
B|---5-7-8-------5-7-8-----5---5-7-8------5-7-8--------------10-10--------------5-----|
G|------------------------------------------------------------------5-5-4-2-4-5---4---|
D|----------------------------------------------------------------------------------5-|
A|------------------------------------------------------------------------------------|
E|------------------------------------------------------------------------------------|

not sure about this lick but I tried 

  Em
e|----------------------------------------------------------------------------|
B|----------------------------------------------------------------------------|
G|-------------------------------------5-6-7-8-8-7-6-5--9-10-11-12-12-11-10-9-|
D|-5-6-7-8-8-7-6-5--7-8-9-10-10-9-8-7-----------------------------------------|
A|----------------------------------------------------------------------------|
E|----------------------------------------------------------------------------|

Play this at 2:14

   Dm
e|------------------------------------------------------------------------------------|
B|------------------------------------------------------------------------------------|
G|--14-12-10----14-12-10----14-12-10----14-12-10-----14--10----------10-9h10p9-7-9-10-|
D|-----------14----------14----------14----------14---------12----12------------------|
A|-------------------------------------------------------------12---------------------|
E|------------------------------------------------------------------------------------|


   Em                                       Dm
e|----------------------7-----7-----7----7-------5----5-----5----------------|
B|--------------------8-----8-----8----8-------6----6-----6------------------|
G|--12-11-----------9-----8-----7----6----6--7----6-----5-----5--------------|
D|---------9h10p9------------------------------------------------------------|
A|---------------------------------------------------------------------------|
E|---------------------------------------------------------------------------|

  Em
e|---------------------------------------------------------------------------|
B|---------------------------------------------------------------------------|
G|-4-2-5-4-5-4-7-5-7-5-9-7-9-7-11-9--7---------------------------------------|
D|---------------------------------------------------------------------------|
A|---------------------------------------------------------------------------|
E|---------------------------------------------------------------------------|


Now go back to part 4


Part 7: 

   F#4               G#4                E4               E5      F#5                
e|---------------------------------------------------------------------------|
B|---------------------------------------------------------------------------|
G|---------------------------------------------------------------------------|
D|---------------------------------------------------------------------------|
A|--2-2-2-2-2--2-4-5-4--4-4-4-4--4-2-----------------------------------------|
E|------------------------------------5-2-2-2-2-2-2--5-2-0-0-0-0-2-2-2-2-----|


   F#4               G#4              D5                 E5    F#5
e|---------------------------------------------------------------------------|
B|---------------------------------------------------------------------------|
G|---------------------------------------------------------------------------|
D|-----------------------------------2----------------2-4-2-2-2-4-4-4--------|
A|--2-2-2-2-2--2-4-5-4-4-4-4-4--4-5----5-5-5-5-5-5--5------------------------|
E|---------------------------------------------------------------------------|


   B5                G#4              D5              E5         F#5  
e|----------------------------------------------------------------------------|
B|------------5-----------------5--------------5----------------5-------------|
G|-----4--7-4---7-4-------4-7-4---7-4----4-7-4---7-4----4---4-7---7-4-------4-|
D|--7-----------------7----------------7--------------7---7-----------7-4-7---|
A|----------------------------------------------------------------------------|
E|----------------------------------------------------------------------------|

Strum same chords until ending

Ending: 

  Bm7        C#m7     Dmaj7          Gmaj7  C#m  Bm7        C#m7 Dmaj7
e|---------------------------------------------------------------5-------------|
B|--------7b-5--3-2---7----------7b--5--3---2-3---7--------7b-5-----8-7--------|
G|-7---7-------------------7---7---------------------7---7---------------------|
D|---9-----------------------9-------------------------9-----------------------|
A|-----------------------------------------------------------------------------|
E|-----------------------------------------------------------------------------|

            Gmaj7            C#m  Dmaj7   
e|---------------------------------10------------------------------------------|
B|--------5-5h7p5-----5h7p5--------7-------------------------------------------|
G|-7---7-----------7----------7----7-------------------------------------------|
D|---9-------------------------------------------------------------------------|
A|-----------------------------------------------------------------------------|
E|-----------------------------------------------------------------------------|



Related for Satori tab