Song name
# A B C D E F G H I J K L M N O P Q R S T U V W X Y Z

Rodrigo Y Gabriela - Ixtapa tab

I wrote The chords Gabriela plays above the lead 


Intro:

                         F#m            E              F#m          E
e|---------------------------------------------------------------------------|
B|-10-10--10-10-9-9-9-9---10-10-10-10----9-9-9-9-9------10-10-10-10--9-9-9-9-|
G|-11------------------------------------------------------------------------|
D|---------------------------------------------------------------------------|
A|---------------------------------------------------------------------------|
E|---------------------------------------------------------------------------|


Part 1:

   F#m           E                  D            C#7
e|-9----------9--7-------------------------------------------------7---------|
B|---10-7-10-------9------------7-9-10-7---7-10--9----------7-9-10-----------|
G|-------------------9--6-9-10-----------6---------10--6-10------------------|
D|---------------------------------------------------------------------------|
A|---------------------------------------------------------------------------|
E|---------------------------------------------------------------------------|


  
   F#m7          E                  D                  C#7
e|-9----------9--7----------------------------------------7-------------|
B|---10-7-10-------9------------7-9-10--7-7-9-7-9-10-9-10---10-9-7------|
G|-------------------9--6-9-10-------------------------------------10-6-|
D|----------------------------------------------------------------------|
A|----------------------------------------------------------------------|
E|----------------------------------------------------------------------|



   F#m7          E                  D            C#7
e|-9----------9--7-------------------------------------------------7---------|
B|---10-7-10-------9------------7-9-10-7---7-10--9----------7-9-10-----------|
G|-------------------9--6-9-10-----------6---------10--6-10------------------|
D|---------------------------------------------------------------------------|
A|---------------------------------------------------------------------------|
E|---------------------------------------------------------------------------|

  F#m7          E                  D                  C#7                F#m7
e|-9----------9--7----------------------------------------7-----------------|
B|---10-7-10-------9------------7-9-10--7-7-9-7-9-10-9-10---10-9-7----------|
G|-------------------9--6-9-10-------------------------------------10-6-----|
D|--------------------------------------------------------------------------|
A|-----------------------------------------------------------------------9--|
E|--------------------------------------------------------------------------|


Part 2:

   F#m7            C#m                       Bm7   C#7
e|-----------------------12--------------------------------------------------|
B|-----------------9-10-----10-9----9-10-9---3-5-7-6-7-9---------------------|
G|------------9-11---------------11------------------------------------------|
D|------11-12----------------------------------------------------------------|
A|-9-12----------------------------------------------------------------------|
E|---------------------------------------------------------------------------|


 
    F#m7                C#m                         Bm7     C#
e|----------------------------12----------------------------4-4--4-4--4------|
B|--10-9-7--9-10--9-7---9-10-----10-9------9-10-9---3-5-3---6-6--6-6--6------|
G|-------------------------------------11-------------------6-7--6-7--6------|
D|---------------------------------------------------------------------------|
A|---------------------------------------------------------------------------|
E|---------------------------------------------------------------------------|


Part 3:

    F#m               E                 D                 C#7
e|--------9-------9---------------------------10-------10-------10------9-----|
B|---7-10----7-10------9-12-----9-12-----7-10-----7-10-----6-9------6-9---9-6-|
G|-------------------9-------9-------9----------------------------------------|
D|----------------------------------------------------------------------------|
A|----------------------------------------------------------------------------|
E|----------------------------------------------------------------------------|

   
    F#m             E               D              C#7
e|-------9-------9------------------10-9-7-------------7---------7-----------|
B|--7-10----7-10-----9-12---9-12-----------10-9-7-9-10---10-9-7----10-9-6----|
G|-----------------9------9------9-------------------------------------------|
D|---------------------------------------------------------------------------|
A|---------------------------------------------------------------------------|
E|---------------------------------------------------------------------------|


     F#m             E                   D                C#7   
e|--------9-------9---------------------------10-------10------10------9-----|
B|---7-10----7-10------9-12-----9-12-----7-10-----7-10----6-9------6-9---9-6-|
G|-------------------9-------9-------9---------------------------------------|
D|---------------------------------------------------------------------------|
A|---------------------------------------------------------------------------|
E|---------------------------------------------------------------------------|

    F#m            E                D                C#                 F#m6 
e|-------9-------9------------------10-9-7-------------------------------4---|
B|--7-10----7-10-----9-12---9-12------------10-7--------10-----9---------4---|
G|-----------------9------9------9----------------10-7-----7-6---6--5v---2---|
D|-----------------------------------------------------------------------4---|
A|----------------------------------------------------------------------(4)--|
E|----------------------------------------------------------------------(2)--|


Part 4:

Guitar 1:

e|---------------------------------------------------------------------------|
B|--------3-----------------3-------------------3------------------3---------|
G|------0---0------------0-----0--------------0----0-------------0---0-------|
D|----4-------4----4---4---------4----4-----4--------4-----4---4-------4---4-|
A|--2------------2---2--------------2----0--------------0----0-----------0---|
E|---------------------------------------------------------------------------|


e|----------------------------------------------------------------------------|
B|-----------3-----------------3---------------------3---------------3------3-|
G|--------0----0------------0-----0---------------0----0-----------0------0---|
D|------4--------4----4---4---------4----4------4--------4---4---4------4-----|
A|-------------------------------------------0-------------0---1------1-------|
E|---3--------------3---3--------------3--------------------------------------|


Guitar 2 (palm mute):

e|---------------------------------------------------------------------------|
B|---------------------------------------------------------------------------|
G|--11-7-7-12-7-7--11-7-6-7-9--7--11-9-7-6-7---------------------------------|
D|---------------------------------------------------------------------------|
A|---------------------------------------------------------------------------|
E|---------------------------------------------------------------------------|


e|---------------------------------------------------------------------------|
B|---------------------------------------------------------------------------|
G|--11-7-7-12-7-7--11-7-9-7-7-11-7-7--9-7-6----------------------------------|
D|---------------------------------------------------------------------------|
A|---------------------------------------------------------------------------|
E|---------------------------------------------------------------------------|



Guitar 1 (alternate style):

e|---------------------------0----------------------------------0------------|
B|--------3---------------3----3-------------3---------------3----3----------|
G|------0---0-----------0--------0---------0---0-----------0--------0--------|
D|----4-------4---4---4------------4-----4-------4---4---4------------4------|
A|--2-----------2---2------------------0-----------0---0---------------------|
E|---------------------------------------------------------------------------|



e|-----------------------------0----------------------------------------------|
B|--------3-----------------3----3-------------3----------------3--------3----|
G|------0---0-------------0--------0---------0---0------------0--------0------|
D|----4-------4-----4---4------------4-----4-------4----4---4--------4--------|
A|---------------------------------------0------------0---1--------1----------|
E|-3-------------3----3-------------------------------------------------------|


Part 5:

e|---------------------------------------------------------------------------|
B|---------------------------------------------------------------------------|
G|-----4-----4---------4-----4-----------2----2--------2----2----------------|
D|---4-----4-----4---4-----4-----4-----4----4----4---4----4----4-------------|
A|-2-----2-----2---2-----2-----2-----0----0----0---0----0----0---------------|
E|---------------------------------------------------------------------------|


e|--------------------------------------------------------------------------------|
B|--------------------------------------------------------------------------------|
G|-------4------4---------------4---------4-----------2-----2---------3-----3-----|
D|--5--4---5--4-----5--4--5--4------5--4-----5-4----4-----4----4----4-----4-----4-|
A|------------------------------------------------0-----0----0----1-----1-----1---|
E|--3------3--------3-----3---------3--------3------------------------------------|


now just Strum these chords really fast until solo
 
   Bm      A6      C#m   Dmaj7   Bm7    C#
e|--2-------x-------9------5------2------4---------------------------------------|
B|--3-------0-------9------7------3------6---------------------------------------|
G|--4-------2-------9------6------2------6---------------------------------------|
D|--4-------4-------11-----7------4------6---------------------------------------|
A|--2-------0--------------5------2------4---------------------------------------|
E|----------x--------------------------------------------------------------------|


Solo:

Chords: F#m E D C#7 

e|------------------------12-14-16-16-17-19-17-16--14-12---------------------|
B|-----------------12-14----------------------------------14-12--------------|
G|--13-11-11-13-14----------------------------------------------13-----------|
D|---------------------------------------------------------------------------|
A|---------------------------------------------------------------------------|
E|---------------------------------------------------------------------------|



e|---------------------------------------------------------11-12-13-12-11----------------------|
B|------------------------------------------------12-14-15----------------15-14-12-------------|
G|--11-13-11-----------------------------11-13-14----------------------------------14-13-11-10-|
D|-----------14-11-11-----------11-13-14-------------------------------------------------------|
A|--------------------14--11-14----------------------------------------------------------------|
E|---------------------------------------------------------------------------------------------|



e|-----------------------12----12--14-12-14-16-14-16-17-16-17-19-17-19-------|
B|-------------14----14-----14-----------------------------------------------|
G|-11-11-14-14----14---------------------------------------------------------|
D|---------------------------------------------------------------------------|
A|---------------------------------------------------------------------------|
E|---------------------------------------------------------------------------|


e|--21v---19-17-16v--14-12-----16b--12------16b-16b--12-----16b-16b-12-------|
B|-------------------------14-----------14---------------14-------------14---|
G|---------------------------------------------------------------------------|
D|---------------------------------------------------------------------------|
A|---------------------------------------------------------------------------|
E|---------------------------------------------------------------------------|


Breakdown:

I couldn't get the lead but here are the chords repeat progression x2

   Dmaj7   C#m   Bm7    C#
e|--5-------4-----2-----4----------------------|
B|--7-------5-----3-----6----------------------|
G|--6-------6-----2-----6----------------------|
D|--7-------6-----4-----6----------------------|
A|--5-------4-----2-----4----------------------|
E|---------------------------------------------|


Song then goes back to the beginning 



Tap to rate this tab
# A B C D E F G H I J K L M N O P Q R S T U V W X Y Z