Guitaretab - guitar tabs
Song name
# A B C D E F G H I J K L M N O P Q R S T U V W X Y Z

Rodrigo Y Gabriela - Juan Loco tab

Rodrigo y Gabriela  juan Loco (intro)


e|-------------------8---------8-----|--------8---------10-----------10---|
B|------8-11-10--8-----8----8--------|-----11---11-10------11-----11------|
G|--7---------------------8----------|--7----------------------12---------|
D|-8---------------------------------|-7----------------------------------|
A|-----------------------------------|------------------------------------|
E|-----------------------------------|------------------------------------|


e|-------------------8---------8-----|--------8---------10---------8--------|
B|------8-11-10--8-----8----8--------|-----11---11-10------11---------10----|
G|--7---------------------8----------|--7----------------------12--------10-|
D|-8---------------------------------|-7------------------------------------|
A|-----------------------------------|--------------------------------------|
E|-----------------------------------|--------------------------------------|

e|-------------------8---------8-----|--------8---------10-----------10---|
B|------8-11-10--8-----8----8--------|-----11---11-10------11-----11------|
G|--7---------------------8----------|--7----------------------12---------|
D|-8---------------------------------|-7----------------------------------|
A|-----------------------------------|------------------------------------|
E|-----------------------------------|------------------------------------|
[ Tab from: http://www.guitaretab.com/r/rodrigo-y-gabriela/105416.html ]
e|-------------------8---------8-----|--------8---------------------------|
B|------8-11-10--8-----8----8--------|-----11---11-10-11-10----10---------|
G|--7---------------------8----------|--7-------------------12-----12-11--|
D|-8---------------------------------|-7----------------------------------|
A|-----------------------------------|------------------------------------|
E|-----------------------------------|------------------------------------|

e|--------------------------------|------------------|----------------|
B|--------------------------------|----8-11-10-8-----|----8-11-10-----|
G|-12-11--------------------------|--7-------------8-|--7-------------|
D|--------13-12-10----------------|-8----------------|-7--------------|
A|-----------------13-12-10---9---|------------------|----------------|
E|--------------------------------|------------------|----------------|


e|-----------------|-------------------|---------------|-------------------|
B|-----8-10-8------|-----8-11-10-8-----|----8--11------|-----8-10-8-108~~-|
G|---8---------7---|--7------------8---|--7--------10--|--8----------------|
D|--7------------8-|-8-----------------|-7-------------|-7-----------------|
A|-----------------|-------------------|---------------|-------------------|
E|-----------------|-------------------|---------------|-------------------|


e|---------------------|------------------------|---------|
B|-----8-6-------------|------6--4--------------|---------|
G|---7------8-7--10-8--|---5--------7--5--8-7---|---------|
D|-8-------------------|-7----------------------|---------|
A|---------------------|------------------------|---------|
E|---------------------|------------------------|---------|


Its really fast and hard song to play, so I really hope that your suggestions and 
will help tabbing this song right.
Related for Juan Loco tab