Song name
# A B C D E F G H I J K L M N O P Q R S T U V W X Y Z

Rodrigo Y Gabriela - Diablo Rojo tab

-------------------------------------------------------------------------------
			     DIABLO ROJO - Rodrigo y Gabriela
-------------------------------------------------------------------------------
Tabbed by: TomleHat
Email: thom25j@yahoo.co.uk

Tuning: Standard

Very difficult to tab at some of the fast parts but I was determined to finish
it. Sounds good even if you don't play it at full speed.

Part 1a
e|--------------------------------------------------------|
B|----------------------------------------------10-9------|
G|----------------9--8----------7--10-9--------------10-9-|
D|-7--10-----9-10-------10-9---------------10-9-----------|
A|--------------------------------------------------------|
E|--------------------------------------------------------|

e|---------------------------------------------------7-|
B|----------------------------------------------9-10---|
G|----------------9--8----------7--10-9----------------|
D|-7--10-----9-10-------10-9---------------10-9--------|
A|-----------------------------------------------------|
E|-----------------------------------------------------|

e|--------------------------------------------------------|
B|----------------------------------------------10-9------|
G|----------------9--8----------7--10-9--------------10-9-|
D|-7--10-----9-10-------10-9---------------10-9-----------|
A|--------------------------------------------------------|
E|--------------------------------------------------------|

e|-----------------------------------------------------7-|
B|------------------------------------------------9-10---|
G|----------------9--8----------7--10-9---------9--------|
D|-7--10-----9-10-------10-9---------------10-9----------|
A|-------------------------------------------------------|
E|-------------------------------------------------------|

Part 1b   (same as Part 1a but x-tra 7 note added on each line)
e.g.:
e|--------------------------------------------------------|
B|----------------------------------------------10-9------|
G|------------------9-8---------7--10-9--------------10-9-|
D|-7--10---(7)-9-10------10-9--------------10-9-----------|
A|--------------------------------------------------------|
E|--------------------------------------------------------|

Part 2
e|-----------------------------------------------------------------------------------------------|
B|-----------------------------------------------------------------------------------------------|
G|--------7-9-10-9--7-9-10-------7-9--10--9h10p9---------7-9--10--9--7-10-9---------10--9--10--9b|
D|-7-9-10-------------------9-10-------------------9-10----------------------10---777--77-77--77-|
A|-----------------------------------------------------------------------------------------------|
E|-----------------------------------------------------------------------------------------------|

e|---------------------------------------------------------------------------------------|
B|---------------------------------------------------------------------------------------|
G|--------7--9--10-9--7-9-10-------7-9--10--9h10p9-----------10-7-8-9------7-------------|
D|-7-9-10---------------------9-10-----------------------9------------10-9---10--9--8--7-|
A|---------------------------------------------------------------------------------------|
E|---------------------------------------------------------------------------------------|

Part 3
e|-------10----10-------10-----10---------8-----8-------------------|
B|-----12----12-------12-----12---------8-----8--------8------8-----|
G|-12------12------10------10----10---9-----9--------9------9-------|
D|------------------------------------------------10-----10-----10--|
A|------------------------------------------------------------------|
E|------------------------------------------------------------------|

e|------7------7-----7-----7----------5-----5-----5-----5---|
B|----9------9-----9-----9----------5-----5-----5-----5-----|
G|-10-----10-----9-----7-----7----5-----5-----2-----2-----2-|
D|----------------------------------------------------------|
A|----------------------------------------------------------|
E|----------------------------------------------------------|

e|-------10----10-------10-----10---------8-----8-------------------|
B|-----12----12-------12-----12---------8-----8--------8------8-----|
G|-12------12------10------10----10---9-----9--------9------9-------|
D|------------------------------------------------10-----10-----10--|
A|------------------------------------------------------------------|
E|------------------------------------------------------------------|

e|-------------------------------7p5-4-4-5-7---7p5-4-4-5-7---8p7-5-5-7-8---10p8-7-7-8-10-12-|
B|-7p5-4-4-5-7---7p5-4-4-5-7----------------------------------------------------------------|
G|------------------------------------------------------------------------------------------|
D|------------------------------------------------------------------------------------------|
A|------------------------------------------------------------------------------------------|
E|------------------------------------------------------------------------------------------|

Part 1b

Break x4

Part 4
e|------------------------------------|----------------------------------|
B|------8-9-10------8-----------------|----------------------------------|
G|----9---------9-9---10--10-7-9-10-9-|-9--------9-10-9------9---------9-|
D|-7----------------------------------|---9----9--------10-----10-7-10---|
A|------------------------------------|-----11---------------------------|
E|------------------------------------|----------------------------------|

e|---------------------8----7-------7-|-10-7---7-10-12-10----10-12----------12-|
B|-----8---8-9-10---10---10---9---9---|------9------------13-------13----13----|
G|-9-9---9--------9-------------9-----|-------------------------------14-------|
D|------------------------------------|----------------------------------------|
A|------------------------------------|----------------------------------------|
E|------------------------------------|----------------------------------------|

e|-12-------------------11-12-11-|-11---------------11-|
B|----13-------------13----------|----12---------12----|
G|-------14-12-13-14-------------|-------13-9-13-------|
D|-------------------------------|---------------------|
A|-------------------------------|---------------------|
E|-------------------------------|---------------------|

e|-10-7-------7-10-13-12-10-|-12-------------------12-|
B|------9---9---------------|----13-------------13----|
G|--------9-----------------|-------14-12-13-14-------|
D|--------------------------|-------------------------|
A|--------------------------|-------------------------|
E|--------------------------|-------------------------|

e|-12-------------------12-15-14-13-|-12----------12-13-12-|
B|----13-------------13-------------|----------12----------|
G|-------14-12-13-14----------------|-------13-------------|
D|----------------------------------|----14----------------|
A|----------------------------------|----------------------|
E|----------------------------------|----------------------|

e|-10-7------------------|-------8-10-12-|
B|------9---9-12-11-10-9-|-10-10---------|
G|--------9--------------|---------------|
D|-----------------------|---------------|
A|-----------------------|---------------|
E|-----------------------|---------------|

Part 5
e|---|---|------|---|
B|-1-|---|-3--1-|-1-|
G|-2-|-1-|-1--2-|-2-|
D|-2-|-2-|-2--2-|-2-| x2
A|---|-2-|-2----|---|
E|---|---|------|---|

Part 6
e|-5--5--5--5---7--7--7--7---7--7--7--7---5--5--5--5-|
B|-5--5--5--5---9--9--9--9---9--9--9--9---5--5--5--5-|
G|-5--5--5--5---9--9--9--9---7--7--7--7---5--5--5--5-|
D|---------------------------------------------------| x4
A|---------------------------------------------------|
E|---------------------------------------------------|

e|-5--5--5--5-5-5---7--7--7--7-7-7---7--7--7--7-7-7---5--5--5--5-5-5-|
B|-5--5--5--5-5-5---9--9--9--9-9-9---9--9--9--9-9-9---5--5--5--5-5-5-|
G|-5--5--5--5-5-5---9--9--9--9-9-9---7--7--7--7-7-7---5--5--5--5-5-5-|
D|-------------------------------------------------------------------| x2
A|-------------------------------------------------------------------|
E|-------------------------------------------------------------------|

Part 7
e|-5p0-5p0-0-1p0-0--5p0-5p0-0-1p0-0-|-4p0-4p0-0-1p0-0--4p0-4p0-0-1p0-0-|
B|----------------------------------|----------------------------------|
G|----------------------------------|----------------------------------|
D|----------------------------------|----------------------------------|
A|----------------------------------|----------------------------------|
E|----------------------------------|----------------------------------|

e|-4p0-7p0-0-4p0-0--7p0-7p0-0-4p0-0-|-7p0-8p0-0-5p0-0--8p0-8p0-0-5p0-0-|
B|----------------------------------|----------------------------------|
G|----------------------------------|----------------------------------|
D|----------------------------------|----------------------------------|
A|----------------------------------|----------------------------------|
E|----------------------------------|----------------------------------|

e|-8p0-8p0-0-5p0-0--8p0-8p0-0-5p0-0-|-8p0-10p0-0-7p0-0--10p0-10p0-0-7p0-0-|
B|----------------------------------|-------------------------------------|
G|----------------------------------|-------------------------------------|
D|----------------------------------|-------------------------------------|
A|----------------------------------|-------------------------------------|
E|----------------------------------|-------------------------------------|

e|-10p0-10p0-0-7p0-0--10p0-10p0-0-7p0-0-|-10p0-12p0-11p0-10p0-9p0-8p0-7p0-6p0--|
B|--------------------------------------|--------------------------------------|
G|--------------------------------------|--------------------------------------|
D|--------------------------------------|--------------------------------------|
A|--------------------------------------|--------------------------------------|
E|--------------------------------------|--------------------------------------|

e|-5p0-5p0-0-1p0-0--5p0-5p0-0-1p0-0-|-4p0-4p0-0-1p0-0--4p0-4p0-0-1p0-0-|
B|----------------------------------|----------------------------------|
G|----------------------------------|----------------------------------|
D|----------------------------------|----------------------------------|
A|----------------------------------|----------------------------------|
E|----------------------------------|----------------------------------|

e|-4p0-7p0-0-4p0-0--7p0-7p0-0-4p0-0-|-7p0-8p0-0-5p0-0--8p0-8p0-5p0-8p0-5p0-|
B|----------------------------------|--------------------------------------|
G|----------------------------------|--------------------------------------|
D|----------------------------------|--------------------------------------|
A|----------------------------------|--------------------------------------|
E|----------------------------------|--------------------------------------|

e|-8p0-0-5p0-0--8p0-8p0-5p0-8p0-5p0-|-10p0-0-8p0-0-10p0-10p0-8p0-10p0-8p0-|
B|----------------------------------|-------------------------------------|
G|----------------------------------|-------------------------------------|
D|----------------------------------|-------------------------------------|
A|----------------------------------|-------------------------------------|
E|----------------------------------|-------------------------------------|

e|-10p0-8p0-10p0-8p0-10p0-8p0-10p0-|-11p0-12-12-12-12-12-12-12-12-12-12-12-|
B|---------------------------------|---------------------------------------|
G|---------------------------------|---------------------------------------|
D|---------------------------------|---------------------------------------|
A|---------------------------------|---------------------------------------|
E|---------------------------------|---------------------------------------|

Part 8
e|-12-|-12-|-13---12-|-12-|
B|-13-|-12-|-12---12-|-13-|
G|-14-|-13-|-13---13-|-14-|
D|----|----|---------|----| x2
A|----|----|---------|----|
E|----|----|---------|----|

Part 9
e|----8----8----8----8---|---7---7---7---7---|---7---7---7---7---|---5---5---5---5---|
B|--10---10---10---10----|--9---9---9---9----|--9---9---9---9----|--5---5---5---5----|
G|-9----9----9----9----9-|-9---9---9---9---9-|-7---7---7---7---7-|-5---5---5---5---5-|
D|-----------------------|-------------------|-------------------|-------------------| x2
A|-----------------------|-------------------|-------------------|-------------------|
E|-----------------------|-------------------|-------------------|-------------------|

e|------8------8-------|-----7-----7-------|-----7-----7-------|------8------8-------|
B|---10-----10---------|---9-----9---------|---9-----9---------|---10-----10---------|
G|-9------9------7-8-9-|-9-----9-----7-8-9-|-9-----9-----7-8-9-|-9------9------7-8-9-|
D|---------------------|-------------------|-------------------|---------------------|
A|---------------------|-------------------|-------------------|---------------------|
E|---------------------|-------------------|-------------------|---------------------|

e|------8------8-------|-----7-----7-------|-----7-----7-------|-8\--|
B|---10-----10---------|---9-----9---------|---9-----9---------|-10\-|
G|-9------9------7-8-9-|-9-----9-----7-8-9-|-9-----9-----7-8-9-|-9\--|
D|---------------------|-------------------|-------------------|-10\-|
A|---------------------|-------------------|-------------------|-----|
E|---------------------|-------------------|-------------------|-----|

Break x4
Part 1a
Part 1b

Part 10
e|------------------------7-|		
B|-------------------9-10---|		
G|-7--10-9---------9--------|		
D|------------10-9----------| x2	
A|--------------------------|		
E|--------------------------|	

e|---|
B|-1-|
G|-2-|
D|-2-|
A|---|
E|---|

| \  slide down
| h  hammer-on
| p  pull-off

===============================================================================
Tap to rate this tab
 
# A B C D E F G H I J K L M N O P Q R S T U V W X Y Z