Song name
# A B C D E F G H I J K L M N O P Q R S T U V W X Y Z

Rooster - Breathe tab

intro, soft distorted notes
e----------|
b----10-8--|
g--7-------|
d----------|
a----------|
e----------|

riff before chord in verse (might actually be bass)
e-----------------|
b-----------------|
g-----------------|
d-----------------|
a--2-4-2-3-2-3-2--|
e-----------------|

periodic chord heard in background during verse
e--3--
b--3--
g--4--
d--5--
a--5--
e--3--

pre-chorus buildup
e---------|
b---------|
g---------|
d--2-3-5--|
a--2-3-5--|
e--0-1-3--|

chorus
e-------------------|
b-------------------|
g-------------------|
d--5-5-3-3-3-2-2-5--|
a--5-5-3-3-3-2-2-5--|
e--3-3-1-1-1-0-0-3--|
     .
Tap to rate this tab
# A B C D E F G H I J K L M N O P Q R S T U V W X Y Z