Song name
# A B C D E F G H I J K L M N O P Q R S T U V W X Y Z

Rooster - On The Road tab

E:------------------------------------------------------------------|
B:------------------------------------------------------------------|
G:------------------------------------------------------------------|
D:------------------------------------------------------------------|
A:--5--3--0---------------------------------------------------------|
D: ----------5--3--0--0--0------------------------------------------|

There is also a variation which is like this:

E:--------------------------------------------------------------------|
B:--------------------------------------------------------------------|
G:--------------------------------------------------------------------|
D:--------------------------------------------------------------------|
A:--5--3--0-----------------------------------------------------------|
D: ----------5--3--5--3--0--0-----------------------------------------|
Tap to rate this tab
# A B C D E F G H I J K L M N O P Q R S T U V W X Y Z