Song name
# A B C D E F G H I J K L M N O P Q R S T U V W X Y Z

Saints - Know Your Product tab

artist: the saints
song: know your product
tuning: standard
tabbed by: batesyy

/intro.chorus

|---------------------|
|---------------------|
|---------------------|
|-----------8---------|
|-3----6----6----8----|
|-1----4---------6----|

|------------------|
|------------------|
|-10--8-----10--8--|
|--------8---------|
|------------------|
|------------------|

|------------------|
|------------------|
|-10--8-----12--10-|
|--------8---------|
|------------------|
|------------------|

|-------------------------------------------------|
|-------------------------------------------------|
|-10-10--8-----10-10--8-------10--8----10-10--8---|
|-----------10-----------10---------10----------10|
|-------------------------------------------------|
|-------------------------------------------------|


/verse

|------|
|------|
|------|
|------|
|-3----|
|-1----|

|--------|
|--------|
|--------|
|-5---3--|
|-3---1--| x2 
|--------|

|--------|
|--------|
|--------|
|-----5--|
|-3---3--|
|-1------|

Tap to rate this tab
 
# A B C D E F G H I J K L M N O P Q R S T U V W X Y Z