Guitaretab - guitar tabs
Song name
# A B C D E F G H I J K L M N O P Q R S T U V W X Y Z

Sam Roberts - Paranoia tab

~s~ = slide
p= pull-off
h= hammer-on

intro:

    G                 C                 C                 G  C  G7
E|--3--x-----x-----x--0--x-----x-----x--0--x-----x-----x--3--0--1-|
B|--0--1-~s~-3-~s~-1--1--1-~s~-3-~s~-1--1--1-~s~-3-~s~-1--0--1--0-|
G|--0--0-----0-----0--0--0-----0-----0--0--0-----0-----0--0--0--0-|
D|--0--2-~s~-4-~s~-2--2--2-~s~-4-~s~-2--2--2-~s~-4-~s~-2--0--2--0-|
A|--2--x-----x-----x--3--x-----x-----x--3--x-----x-----x--2--3--2-|
E|--3--x-----x-----x--x--x-----x-----x--x--x-----x-----x--3--x--3-|
  Repeats through verses

 chorus:
    Dm  C   G   C  G7
E|--1---0---3---0--1--|
B|--3---1---0---1--0--|
G|--2---0---0---0--0--|
D|--0---2---0---2--0--|
A|--x---3---2---3--2--|
E|--x---x---3---x--3--|
  If you listen carefully you can hear the strumming pattern. It's similar  to the verse.

  Play verse and chorus once more.

  Chorus:
E|---------------------------0-3-5-5p3-0-3------------------------------|
B|----1-3-3p1-----1-3----------------------4-1-1-3-0--------------------|
G|--2---------2-2------------------------------------2-2h4-0------------|
D|--------------------0--------------------------------------0h2p0------|
A|----------------------------------------------------------------------|
E|-----------------------------------------------------------------3----|
[ Tab from: http://www.guitaretab.com/s/sam-roberts/144293.html ]
E|--5p3-1p0-0------------------------0-3-5p3-0-6-5-3-0------------------|
B|------------3---------------------------------------------------------|
G|--------------2-0------------------------------------2h4p0-2-2h4p0----|
D|------------------2-1-0----0h2-2-2------------------------------------|
A|----------------------------------------------------------------------|
E|----------------------------------------------------------------------|

E|----------0----0-1-3-3-1-0-1-0-1-3-3-1-0-1-0-1-3-3-1-0-1-0-1-3-3-1-0-1-|
B|------------3--1-------------------------------------------------------|
G|--------0--------------------------------------------------------------|
D|--0h2p0----------------------------------------------------------------|
A|-----------------------------------------------------------------------|
E|-----------------------------------------------------------------------|

E|----1-3-3-1---1---1-3-3-1---1-|
B|--3---------3---3---------3---|
G|------------------------------|
D|------------------------------|
A|------------------------------|
E|------------------------------|

  Play chorus once more.

Once chorus has ended keep repeating G, C, and G7 until he finishes singing
"And we all need some one to save our souls, 'Cause the next time could be mine, could 
yours."
 Then just keep playing G.(At a later point you'll have to play G and G7 repeatedly).
End on a G chord.

That's it! Please rate my tab!
Enjoy!
Related for Paranoia tab