Song name
# A B C D E F G H I J K L M N O P Q R S T U V W X Y Z

Say Anything - Sappy tab

INTRO and OUTRO (piano for guitar)
E|-----------------------------3------------------------------------|
B|--1--0--1--3--1--0--1--0--1-----3--1--1--0--1--3--1--0--1~~~------|
G|------------------------------------------------------------------|
D|--------------------3-----------------------------------3~~~------|  Repeat
A|--3-----------------------------------0---------------------------|
E|-----------------------------------------------3-------------1~~~-|


VERSE (she's not home...) (when did thi      me...)
E|---------------------------------------------------------------------------|
B|---------------------------------------------------------------------------|
G|--5----5----5----5----5---5------------------------------------------------|
D|--5-55-5-55-5-55-5-55-5-5-5-5-3----3----3----3----3---3---7----7----7--5---|
A|--3-33-3-33-3-33-3-33-3-3-3-3-3-33-3-33-3-33-3-33-3-3-3-3-7-77-5-77-7-75---|
E|------------------------------1-11-1-11-1-11-1-11-1-1-1-1-5-55-5-55-5-53---|
                     /
---------------      ---|
---------------      ---|
------------------------|  /__Palm-muted
-----------3------------|~-    Repeated
55-5-55-5-5-3~~---------|
33-3-33-3-3-1~~---------|

PRECHORUS (tie me up in rope...)
E|------------------|
B|------------------|
G|----------5-------|
D|--7---3---5---3-5-|    figure out strumming here, it's easy
A|--7---3---3---3-5-|
E|--5---1---3---1-3-|


CHORUS (alone, i'm alone)
E|-----------------------------------|
B|-----------------------------------|
G|--55-5-555-------------------------|
D|--55-5-555-55-5-555----------------|    pick near end of song
A|--33-3-333-55-5-555-33-3-3-3-33333-|
E|--33-3-333-33-3-333-11-1-1-1-11111-|

E|---------------------------|
B|---------------------------|
G|--5-5-5555-----------------|
D|--5-5-5555-5-5-5555-3~~~-5-|
A|--3-3-3333-5-5-5555-3~~~-5-|
E|--3-3-3333-3-3-3333-1~~~-3-|


BRIDGE
E|-----------------------------------|
B|-----------------------------------|
G|--55-5-555-------------------------|
D|--55-5-555-333333-7777-777-5555555-|    Repeat
A|--33-3-333-333333-7777-777-5555555-|
E|--33-3-333-111111-5555-555-3333333-|
Tap to rate this tab
 
# A B C D E F G H I J K L M N O P Q R S T U V W X Y Z