Song name
# A B C D E F G H I J K L M N O P Q R S T U V W X Y Z

Say Anything - Manhattan tab

Right this song is so easy i cant believe there isnt a tab for it yet...
I tabbed this from the guy playing it on youtube...
There is alot of scratching between the chords listen to the song for them...


Intro
E-----------------|-----------------|-----------------|-----------------|
B-----------------|-----------------|-----------------|-----------------|
G-----4--3-3h4----|-----4--3-3h4----|-----4--3-3h4----|--4-3---4-3------|
D-4-4-4--4-4------|-4-4-4--4-4------|-----4--4-4------|------4-----4----|
A-2-2-2--2-2------|-2-2-2--2-2------|-2-2-2--2-2------|-----------------|
E-----------------|-----------------|-0-0-0--0-0------|-----------------|

E-----------------|-----------------|-----------------| |-----------------|
B-----------------|-----------------|-----------------| |-----------------|
G-4-4-------------|-9-9-------------|-----------------|X|-----------------|
D-4-4-------------|-9-9-------------|-6-6-6-6-4-4-4-4-|2|-2-2-2-2-2-2-2-4-|
A-2-2-------------|-7-7-------------|-6-6-6-6-4-4-4-4-| |-2-2-2-2-2-2-2-4-|
E-----------------|-----------------|-4-4-4-4-2-2-2-2-| |-0-0-0-0-0-0-0-2-|


Verse
In my dreams...
E-----------------|-----------------|-----------------|-----------------|
B-----------------|-----------------|-----------------|-----------------|
G-----4--3-3h4----|-----4--3-3h4----|-----4--3-3h4----|-----4--3-3h4----|
D-4-4-4--4-4------|-4-4-4--4-4------|-----4--4-4------|-----4--4-4------|
A-2-2-2--2-2------|-2-2-2--2-2------|-2-2-2--2-2------|-2-2-2--2-2------|
E-----------------|-----------------|-0-0-0--0-0------|-0-0-0--0-0------|
                                                                          X2
E-----------------|-----------------|-----------------|-----------------|
B-----------------|-----------------|-----------------|-----------------|
G-----------------|-----------------|-----------------|-----------------| 
D-6-6-6-6-6-6-6-6-|-4-4-4-4-4-4-4-4-|-2-2-2-2-2-2-2-2-|-4---------------|
A-6-6-6-6-6-6-6-6-|-4-4-4-4-4-4-4-4-|-2-2-2-2-2-2-2-2-|-4---------------|
E-4-4-4-4-4-4-4-4-|-2-2-2-2-2-2-2-2-|-0-0-0-0-0-0-0-0-|-2---------------|

Bridge (lots of scratching)
Oh my angel...
E-----------------|-----------------|-----------------|-----------------|
B-----------------|-----------------|-----------------|-----------------|
G-----------------|-----------------|-----------------|-----------------| 
D-6-6-----6-6-----|-4-4-----4-4-----|-2-2-----2-2-----|-4-4----4-4------|
A-6-6-----6-6-----|-4-4-----4-4-----|-2-2-----2-2-----|-4-4----4-4------|
E-4-4-----4-4-----|-2-2-----2-2-----|-0-0-----0-0-----|-2-2----2-2------|

E-----------------|-----------------|-----------------|-----------------|
B-----------------|-----------------|-----------------|-----------------|
G-----------------|-----------------|-----------------|-----------------| 
D-6-6-----6-6-----|-4-4-----4-4-----|-2-2-2-----------|-4~--------------|
A-6-6-----6-6-----|-4-4-----4-4-----|-2-2-2-----------|-4~--------------|
E-4-4-----4-4-----|-2-2-----2-2-----|-0-0-0-----------|-2~--------------|

Chorus
No more no less...
E-----------------|-----------------|-----------------| 
B-----------------|-----------------|-----------------| 
G-4-4-------------|-----------------|-----------------|X
D-4-4-------------|-2-2-------------|-6-6-6-6-4-4-4-4-|2
A-2-2-------------|-2-2-------------|-6-6-6-6-4-4-4-4-| 
E-----------------|-0-0-------------|-4-4-4-4-2-2-2-2-| 

E-----------------|-----------------|-----------------|-----------------|
B-----------------|-----------------|-----------------|-----------------|
G-4-4-------------|-9-9-------------|-----------------|-----------------|
D-4-4-------------|-9-9-------------|-6-6-6-6-4-4-4-4-|-2-2-2-2-2-2-2-4-|
A-2-2-------------|-7-7-------------|-6-6-6-6-4-4-4-4-|-2-2-2-2-2-2-2-4-|
E-----------------|-----------------|-4-4-4-4-2-2-2-2-|-0-0-0-0-0-0-0-2-|

Repeat intro, verse, bridge and chorus

Other bit not sure what to call it...
I'm dreaming of manhattan...
E-----------------|-----------------|-----------------|-----------------|
B-----------------|-----------------|-----------------|-----------------|
G-----------------|-----------------|-----------------|-----------------| 
D-2-2-2-2-2-2-2---|-2-2-2-2-2-2-2---|-4-4-4-4-4-4-4---|-4-4-4-4-4-4-4---|
A-2-2-2-2-2-2-2---|-2-2-2-2-2-2-2---|-4-4-4-4-4-4-4---|-4-4-4-4-4-4-4---|
E-0-0-0-0-0-0-0---|-0-0-0-0-0-0-0---|-2-2-2-2-2-2-2---|-2-2-2-2-2-2-2---|

E-----------------|-----------------|-----------------|-----------------|
B-----------------|-----------------|-----------------|-----------------|
G-----------------|-----------------|-----------------|-----------------| 
D-6-6-6-6-6-6-6---|-6-6-6-6-6-6-6---|-4-4-4-4-4-4-4---|-4-4-4-4-4-4-4---|
A-6-6-6-6-6-6-6---|-6-6-6-6-6-6-6---|-4-4-4-4-4-4-4---|-4-4-4-4-4-4-4---|
E-4-4-4-4-4-4-4---|-4-4-4-4-4-4-4---|-2-2-2-2-2-2-2---|-2-2-2-2-2-2-2---|

In the back is guitar which plays this
G-4---6---4-6/8---|-4---6---4-6/8/6-|-6---8---6-------|-8-9-8-6-4-------|


Repeat chorus then finish with the intro

=]

Tap to rate this tab
# A B C D E F G H I J K L M N O P Q R S T U V W X Y Z