Song name
# A B C D E F G H I J K L M N O P Q R S T U V W X Y Z

Saydie - Lush tab

Song title: Lush
Artist: Saydie
Tabbed by: BatangSundalo (batang.sundalo@yahoo.com) 

Wala magawa eh.... haaaays eto nalang.....


	FIRST GUITAR (Drop D Tuning)

===================================================================
INTRO
===================================================================
GTR.1 00:01
e||--------------------------------------------------|
B||-----------7h8p7h8p7--------------7-8-10-8-7\-----|
G||--------------------------------------------------|
D||---99-9-9-----------------99-9-9------------------|
A||---99-9-9-----------------99-9-9------------------|
D||---99-9-9-----------------99-9-9------------------|

e||------------------------------------------10------|
B||-----------7-5-7-9-7-5------------------7---------|
G||----------------------------------9-7-9-----------|
D||---55-5-5-----------------77-7-7------------------|
A||---55-5-5-----------------77-7-7------------------|
D||---55-5-5-----------------77-7-7------------------|

===================================================================
VERSE
===================================================================

GTR.1 00:10
e||--------------------------------------------------|
B||-----------7h8p7h8p7--------------7-8-10-8-7\-----|
G||--------------------------------------------------|--|
D||---99-9-9-----------------99-9-9------------------|  |
A||---99-9-9-----------------99-9-9------------------|  |
D||---99-9-9-----------------99-9-9------------------|  |
                                                        | 2x
e||------------------------------------------10------|  |
B||-----------7-5-7-9-7-5------------------7---------|  |
G||----------------------------------9-7-9-----------|  |
D||---55-5-5-----------------77-7-7------------------|--|
A||---55-5-5-----------------77-7-7------------------|
D||---55-5-5-----------------77-7-7------------------|

===================================================================
CHORUS
===================================================================

GTR.1 00:26
e||---------------------------------------------------------------------------------------|
B||---------------------------------------------------------------------------------------|
G||--------------------------------------------7-7-7-7-7-9-9-9-9-9-7-7-7-7-7-9-9-9-9-9----| 2x
D||-------------------------------------9-7-6--5-5-5-5-5-7-7-7-7-7-5-5-5-5-5-7-7-7-7-7----|
A||---99-9-9-9--7-5--7-5--7-5----99-9-9-7-5-4--5-5-5-5-5-7-7-7-7-7-5-5-5-5-5-7-7-7-7-7----|
D||---99-9-9-9--7-5--7-5--7-5----99-9-9--------5-5-5-5-5-7-7-7-7-7-5-5-5-5-5-7-7-7-7-7----|


===================================================================
VERSE
===================================================================

GTR.1 00:43
e||--------------------------------------------------|
B||-----------7h8p7h8p7--------------7-8-10-8-7\-----|
G||--------------------------------------------------|--|
D||---99-9-9-----------------99-9-9------------------|  |
A||---99-9-9-----------------99-9-9------------------|  |
D||---99-9-9-----------------99-9-9------------------|  |
                                                        | 3x
e||------------------------------------------10------|  |
B||-----------7-5-7-9-7-5------------------7---------|  |
G||----------------------------------9-7-9-----------|  |
D||---55-5-5-----------------77-7-7------------------|--|
A||---55-5-5-----------------77-7-7------------------|
D||---55-5-5-----------------77-7-7------------------|

===================================================================
CHORUS
===================================================================

GTR.1 01:07
e||---------------------------------------------------------------------------------------|
B||---------------------------------------------------------------------------------------|
G||--------------------------------------------7-7-7-7-7-9-9-9-9-9-7-7-7-7-7-9-9-9-9-9----| 2x
D||-------------------------------------9-7-6--5-5-5-5-5-7-7-7-7-7-5-5-5-5-5-7-7-7-7-7----|
A||---99-9-9-9--7-5--7-5--7-5----99-9-9-7-5-4--5-5-5-5-5-7-7-7-7-7-5-5-5-5-5-7-7-7-7-7----|
D||---99-9-9-9--7-5--7-5--7-5----99-9-9--------5-5-5-5-5-7-7-7-7-7-5-5-5-5-5-7-7-7-7-7----|

===================================================================
REFRAIN
===================================================================

GTR.1 01:24
e||---------------------------------------------------------------------------------------|
B||---------------------------------------------------------------------------------------|
G||---------------------------------------------------------------------------------------|
D||---9-9-9-9-9--7-7-7-7-7--0---------------7--------0--------------7---------------------|
A||---9-9-9-9-9--7-7-7-7-7--0--0-0-0-0--7-9---9-7-0--0-0-0-0-0--7-9---9-7--9--------------|
D||---9-9-9-9-9--7-7-7-7-7--0--0-0-0-0---------------0-0-0-0-0----------------------------|
                               . . . .                 . . . .   
GTR.1 01:32
e||---------------------------------------------------------------------------------------|
B||---------------------------------------------------------------------------------------|
G||---------------------------------------------------------------------------------------|
D||---9-9-9-9-9--7-7-7-7-7--0---------------7--------0----------0-------------------------|
A||---9-9-9-9-9--7-7-7-7-7--0--0-0-0-0--7-9---9-7-0--0-0-0-0-0--0-------------------------|
D||---9-9-9-9-9--7-7-7-7-7--0--0-0-0-0---------------0-0-0-0-0--0-------------------------|
                               . . . .                 . . . .  Break 
GTR.1 01:41 (clean)
e||----------------------------------------------------------|
B||----------------------------------------------------------|
G||---7-7-7-7-7---9-9-9-9-9---11-11-11-11-11---7-7-7-7-7-----| 4x
D||---7-7-7-7-7---9-9-9-9-9---11-11-11-11-11---7-7-7-7-7-----|
A||---5-5-5-5-5---7-7-7-7-7---9--9--9--9--9----5-5-5-5-5-----|
D||----------------------------------------------------------|

GTR.1 02:15
e||----------------------------------------------------------|
B||----------------------------------------------------------| 4x
G||----------------------------------------------------------|
D||-----------7----------------------------------------------|
A||---99-9---------7-9-10---7--7-7-9--5--5-5-7---------------|
D||---99-9--9---9--7-9-10---7--7-7-9--5--5-5-7---------------|

GTR.1 02:32
e||---------------------------------------------------------------------------------------|
B||---------------------------------------------------------------------------------------|
G||---------------------------------------------------------------------------------------|
D||---9-9-9-9-9--7-7-7-7-7--0---------------7--------0--------------7---------------------|
A||---9-9-9-9-9--7-7-7-7-7--0--0-0-0-0--7-9---9-7-0--0-0-0-0-0--7-9---9-7--9--------------|
D||---9-9-9-9-9--7-7-7-7-7--0--0-0-0-0---------------0-0-0-0-0----------------------------|
                               . . . .                 . . . .   
GTR.1 02:40
e||---------------------------------------------------------------------------------------|
B||---------------------------------------------------------------------------------------|
G||---------------------------------------------------------------------------------------|
D||---9-9-9-9-9--7-7-7-7-7--0---------------7--------0----------0-------------------------|
A||---9-9-9-9-9--7-7-7-7-7--0--0-0-0-0--7-9---9-7-0--0-0-0-0-0--0-------------------------|
D||---9-9-9-9-9--7-7-7-7-7--0--0-0-0-0---------------0-0-0-0-0--0-------------------------|
                               . . . .                 . . . .  Break 
GTR.1 02:49
e||---------------------------------------------------------------------------------------|
B||---------------------------------------------------------------------------------------|
G||---------------------------------------------------------------------------------------|
D||---------------------------------------------------------------------------------------|
A||---0-0-0-0-0-0-0-0-0-0-0-0-0-0-0-0-0-0-0-0---------------------------------------------|
D||---0-0-0-0-0-0-0-0-0-0-0-0-0-0-0-0-0-0-0-0---------------------------------------------|
      . . . . . . . . . . . . . . . . . 

GTR.1 02:58
e||-------------------------------------------------------------------------------------------------|
B||-------------------------------------------------------------------------------------------------|
G||-------------------------------------------------------------------------------------------------| 2x
D||-------------------------------------------------------------------------------------------------|
A||---9-7-9-7-10---9-7-9-7-10--9-7-9-7-9-10--7-5-7----9-7-9-7-10--9-7-9-7-10--9-7-9-7-10--12-12-12--|
D||---9-7-9-7-10---9-7-9-7-10--9-7-9-7-9-10--7-5-7----9-7-9-7-10--9-7-9-7-10--9-7-9-7-10--12-12-12--|

GTR.1 03:14
e||---------------------------------------------------------------------------------------|
B||---------------------------------------------------------------------------------------|
G||--------------------------------------------7-7-7-7-7-9-9-9-9-9-7-7-7-7-7-9-9-9-9-9----| 2x
D||-------------------------------------9-7-6--5-5-5-5-5-7-7-7-7-7-5-5-5-5-5-7-7-7-7-7----|
A||---99-9-9-9--7-5--7-5--7-5----99-9-9-7-5-4--5-5-5-5-5-7-7-7-7-7-5-5-5-5-5-7-7-7-7-7----|
D||---99-9-9-9--7-5--7-5--7-5----99-9-9--------5-5-5-5-5-7-7-7-7-7-5-5-5-5-5-7-7-7-7-7----|


===================================================================
OUTRO
===================================================================

GTR.1 03:31
e||--------------------------------------------------|
B||-----------7h8p7h8p7--------------7-8-10-8-7\-----|
G||--------------------------------------------------|
D||---99-9-9-----------------99-9-9------------------|
A||---99-9-9-----------------99-9-9------------------|
D||---99-9-9-----------------99-9-9------------------|

e||------------------------------------------10------|
B||-----------7-5-7-9-7-5------------------7---------|
G||----------------------------------9-7-9-----------|
D||---55-5-5-----------------77-7-7------------------|
A||---55-5-5-----------------77-7-7------------------|
D||---55-5-5-----------------77-7-7------------------|



	SECOND GUITAR (Drop D Tuning)


===================================================================
VERSE 1
===================================================================

GTR.2 00:10
e||----------------7-7---------------------7-7-------|
B||---77-7-7--7-8-8---8------77-7-7---7-8-8---8------|
G||--------------------------------------------------|--|
D||--------------------------------------------------|  |
A||--------------------------------------------------|  |
D||--------------------------------------------------|  |
                                                        | 2x
e||--------------------------------12-12-10-10-9-9---|  |
B||------------10-10--8-7-7--------------------------|  |
G||--77-7-7--7---------------99-9--------------------|  |
D||--------------------------------------------------|--|
A||--------------------------------------------------|
D||--------------------------------------------------|

===================================================================
CHORUS
===================================================================

GTR.2 00:26
e||----------------------------------------    
B||---12-10--------------------------------    
G||---------11-12-11---12-11-10--12-11-10-- 2x  
D||----------------------------------------    
A||----------------------------------------   
D||----------------------------------------

GTR.2 00:30
---------------------------------------------------|
---------------------------------------------------|
---777777-999999-11-11-11-11-11-11-12-12-12-12-12--|
---------------------------------------------------|
---------------------------------------------------|
---------------------------------------------------|

GTR.2 00:34
e||----------------------------------------    
B||---12-10--------------------------------    
G||---------11-12-11---12-11-10--12-11-10-- 2x  
D||----------------------------------------    
A||----------------------------------------   
D||----------------------------------------

GTR.2 00:38
---------------------------------------------------|
-------5-5-7---7-7-8---7-8-7-8-10-8-7--------------|
---7--7-7-----9-9----------------------------------|
---------------------------------------------------|
---------------------------------------------------|
---------------------------------------------------|

===================================================================
VERSE 2
===================================================================

GTR.2 00:51
e||----------------7-7---------------------7-7-------|
B||---77-7-7--7-8-8---8------77-7-7---7-8-8---8------|
G||--------------------------------------------------|--|
D||--------------------------------------------------|  |
A||--------------------------------------------------|  |
D||--------------------------------------------------|  |
                                                        | 2x
e||--------------------------------12-12-10-10-9-9---|  |
B||------------10-10--8-7-7--------------------------|  |
G||--77-7-7--7---------------99-9--------------------|  |
D||--------------------------------------------------|--|
A||--------------------------------------------------|
D||--------------------------------------------------|

===================================================================
CHORUS
===================================================================

GTR.2 01:08
e||----------------------------------------    
B||---12-10--------------------------------    
G||---------11-12-11---12-11-10--12-11-10-- 2x  
D||----------------------------------------    
A||----------------------------------------   
D||----------------------------------------

GTR.2 01:12
---------------------------------------------------|
---------------------------------------------------|
---777777-999999-11-11-11-11-11-11-12-12-12-12-12--|
---------------------------------------------------|
---------------------------------------------------|
---------------------------------------------------|

GTR.2 01:16
e||----------------------------------------    
B||---12-10--------------------------------    
G||---------11-12-11---12-11-10--12-11-10-- 2x  
D||----------------------------------------    
A||----------------------------------------   
D||----------------------------------------

GTR.2 01:20
---------------------------------------------------|
-------5-5-7---7-7-8---7-8-7-8-10-8-7--------------|
---7--7-7-----9-9----------------------------------|
---------------------------------------------------|
---------------------------------------------------|
---------------------------------------------------|

===================================================================
REFRAIN
===================================================================

GTR.2 01:41
e||------------------------------------------------|
B||---7-7-7--2-3-5--10---8-------------------------|
G||------------------------------------------------| 2x
D||------------------------------------------------|
A||------------------------------------------------|
D||------------------------------------------------|

GTR.2 01:49
e||------------------------------------------------|
B||---7-7-7--2-3-5-5-5-5-10--10-10--10-8-8-8-8-----|
G||------------------------------------------------|
D||------------------------------------------------|
A||------------------------------------------------|
D||------------------------------------------------|

GTR.2 01:58
e||------------------------------------------------|
B||---7-7-7--2-3-5-5-5-5-10--10-10--10-8-----------|
G||------------------------------------------------|
D||------------------------------------------------|
A||------------------------------------------------|
D||------------------------------------------------|

===================================================================
OUTRO
===================================================================

GTR.2 03:31
e||----------------7-7---------------------7-7-------|
B||---77-7-7--7-8-8---8------77-7-7---7-8-8---8------|
G||--------------------------------------------------|
D||--------------------------------------------------|  
A||--------------------------------------------------|  
D||--------------------------------------------------| 
                                                        
e||----------------------------------12---10---9-----|  
B||------------10-10--8-7-7--------------------------|  
G||--77-7-7--7---------------99-9--------------------|  
D||--------------------------------------------------|
A||--------------------------------------------------|
D||--------------------------------------------------|


END............

paste nalang sa notepad kung magulo and uncheck nio word wrap salamats
wusb54gcversion4@yahoo.com <----- friendster hahaha
Tap to rate this tab
# A B C D E F G H I J K L M N O P Q R S T U V W X Y Z