Song name
# A B C D E F G H I J K L M N O P Q R S T U V W X Y Z

Saydie - Damien tab

Help us improve GuitareTab! Take a short survey!
DAmien - SAydie
tab by Aeroniell Pelaez (emo_ero) 
greencross666@yahoo.com
emotown project



Tuning Drop D

Intro
[-------------------------------------------------------]
[-------------------------------------------------------]
[-------------------------------------------------------]
[--9---------3-2-------------1-2-1----------------------]
[--9---------3-2---(2x)------1-2-1----------------------]
[--9---------3-2-------------1-2-1----------------------]
  Hold                            Hold

2nd intro/chorus
[-------------------------------------------------------]
[-------------------------------------------------------]
[-------------------------------------------------------]
[--2-0-2-0-4-0-32-0-5-0-3-2--0-4-0-3-2-0----------------]
[--2-0-2-0-2-0-32-0-5-0-3p2--0-2-0-3-2-0----------------]
[--2-0-2-0---0-32-0-5-0-3-2--0---0-3-2-0----------------]

4 times 

Verse
[-------------------------------------------------------]
[-------------------------------------------------------]
[-------------------------------------------------------]
[-------------------------------------------------------]
[---2----------------2----------------2-----------------]
[-3---3-2-0-2-0-2--3---3-2-0-2-0-2--3---3-2-0-2-0-2-----]

[-------------------------------------------------------]
[-------------------------------------------------------]
[-------------------------------------------------------]
[-------------------------------------------------------]
[---2-------4-------------------------------------------]
[-3---3-2-5---5-4---------------------------------------]

Refrain
[-------------------------------------------------------]
[-------------------------------------------------------]
[-------------------------------------------------------]
[-0--3-2------------2-----------------------------------]
[-0--3-2--------2-3-------------------------------------]
[-0--3-2--0-2-3-----------------------------------------]

8 times


chorus
[-------------------------------------------------------]
[-------------------------------------------------------]
[-------------------------------------------------------]
[--2-0-2-0-4-0-32-0-5-0-3-2--0-4-0-3-2-0----------------]
[--2-0-2-0-2-0-32-0-5-0-3p2--0-2-0-3-2-0----------------]
[--2-0-2-0---0-32-0-5-0-3-2--0---0-3-2-0----------------]

4 times ulet

Verse
[-------------------------------------------------------]
[-------------------------------------------------------]
[-------------------------------------------------------]
[-------------------------------------------------------]
[---2----------------2----------------2-----------------]
[-3---3-2-0-2-0-2--3---3-2-0-2-0-2--3---3-2-0-2-0-2-----]

[-------------------------------------------------------]
[-------------------------------------------------------]
[-------------------------------------------------------]
[-------------------------------------------------------]
[---2-------4-------------------------------------------]
[-3---3-2-5---5-4---------------------------------------]

4 times


Refrain
[-------------------------------------------------------]
[-------------------------------------------------------]
[-------------------------------------------------------]
[-0--3-2------------2-----------------------------------]
[-0--3-2--------2-3-------------------------------------]
[-0--3-2--0-2-3-----------------------------------------]

8 times

Chorus
[-------------------------------------------------------]
[-------------------------------------------------------]
[-------------------------------------------------------]
[--2-0-2-0-4-0-32-0-5-0-3-2--0-4-0-3-2-0----------------]
[--2-0-2-0-2-0-32-0-5-0-3p2--0-2-0-3-2-0----------------]
[--2-0-2-0---0-32-0-5-0-3-2--0---0-3-2-0----------------]

4 times ulet

Bridge
[-------------------------------------------------------]
[-------------------------------------------------------]
[-------------------------------------------------------]
[-0-2-0-2-3-2--0-2-0-2-3-2--0-2-0-2-3-------------------]
[-0-2-0-2-3-2--0-2-0-2-3-2--0-2-0-2-3-------------------]
[-0-2-0-2-3-2--0-2-0-2-3-2--0-2-0-2-3-------------------]

[-------------------------------------------------------]
[-------------------------------------------------------]
[-------------------------------------------------------]
[-0-2-0-2-3-2--0-4-0-5-3-2------------------------------]
[-0-2-0-2-3-2--0-2-0-5-3-2------------------------------]
[-0-2-0-2-3-2--0---0-5-3-2------------------------------]

4 times
second part bridge
[-------------------------------------------------------]
[-------------------------------------------------------]
[-0-0-3-2-2-0-4-4--3-2-2--------------------------------]
[-0-0-3-2-2-0-2-2--3-2-2--------------------------------]
[-0-0-3-2-2-0------3-2-2--------------------------------]

then chorus ulet

chorus
[-------------------------------------------------------]
[-------------------------------------------------------]
[-------------------------------------------------------]
[--2-0-2-0-4-0-32-0-5-0-3-2--0-4-0-3-2-0----------------]
[--2-0-2-0-2-0-32-0-5-0-3p2--0-2-0-3-2-0----------------]
[--2-0-2-0---0-32-0-5-0-3-2--0---0-3-2-0----------------]

thats all!!!! paki rate nalang at coment!!

Related for Damien tab