Song name
# A B C D E F G H I J K L M N O P Q R S T U V W X Y Z

Scott Matthews - Wasp And The Jar tab

-------------------------------------------------------------------------------
			     Scott Matthews - Wasp and the Jar
-------------------------------------------------------------------------------
Tabbed by: Gav	
Email: gav_jones@hotmail.com

Tuning: DADF#AD

Capo 2nd Fret

This is my first attempt at tab writing so I hope it's come out alright! I
have just done the main pattern, it varies a bit but you can pick it up if 
you listen to the song. I'm not sure about the notes in brackets (but they
sound alright if included) and also I've left off the end, I'll add that 
on later if I find the time.

Intro

D |-----|  |---------------0------------------0------------------0------------|
A |-----|  |-4----------------4--2---------------2--4---------------4--2------|
F#|-----|x8|(0)------------------------------------(0)------------------------|
D |-0-0-|  |---0-0-0-0-0-0-0---0--0-0-0-0-0-0-0---0--0-0-0-0-0-0-0---0---0-0--|
A |-----|  |------------------------------------------------------------------|
D |0-0--|  |-0--0-0-0-0-0-0--0---0-0-0-0-0-0-0--0---0-0-0-0-0-0-0--0---0--0---|

Verse

D |0-------0h2----4------------4p0-------0-------0h2-----4---------------4---0|
A |------(0)--(0)----2--------------2----------(0)---(0)----2-------4---------|
F#|---------------------------------------------------------------------------|
D |--0---0----0----0---0---0---0------0----0---0----0-----0---0---0---0----0--|
A |---------------------------------------------------------------------------|
D |0---0---0----0----0---0---0----0------0---0---0-----0----0---0---0---0----0|

Chorus

D |-4---------4---------------0---------0--|
A |----0---------0------4---------4--------|
F#|-------5---------5------3---------3-----|
D |---0----0----0----0----4-----4---4------|x3
A |----------------------------------------|
D |-5---5-----5----5----4----4----4----4---|

D |---------------0-------------0---0-|
A |------------------0-------4--------|
F#|-2--------------------5------------|
D |---0--0--0--0--0---0----0------0---|
A |-----------------------------------|
D |-2--2--2--2--2---2----5----5-----0-|

After second chorus

D |---0-------0-------0------0------|
A |-----0-------0-------0------0----|
F#|-2-----2-------2-------2---------|(slightly different in the song)
D |--0---0---0---0---0---0--0---0---|
A |---------------------------------|
D |-2--2----2--2----2--2---2--2-----|

D |-----0------0------0------0-----4---------4---------------0---------0--|
A |-4------4------4------4------------0---------0------4---------4--------|
F#|---0------0------0------0-------------5---------5------3---------3-----|
D |--0---0--0---0--0---0--0---0------0----0----0----0----4-----4---4------|x2
A |-2--2---2--2---0--0---0---0--------------------------------------------|
D |--------------------------------5---5-----5----5----4----4----4----4---|

D |---------------0-------------0---0-|
A |------------------0-------4--------|
F#|-2--------------------5------------|
D |---0--0--0--0--0---0----0------0---|
A |-----------------------------------|
D |-2--2--2--2--2---2----5----5-----0-|




| /  slide up
| \  slide down
| h  hammer-on
| p  pull-off
| ~  vibrato
| +  harmonic
| x  Mute note
===============================================================================
Tap to rate this tab
# A B C D E F G H I J K L M N O P Q R S T U V W X Y Z