Guitaretab - guitar tabs
Song name
# A B C D E F G H I J K L M N O P Q R S T U V W X Y Z

Scott Matthews - Eyes Wider Than Before tab

****************************************
Scott Matthews -bEyes Wider Than Before
****************************************
Tabbed By Maharg

Tuning -
e - d
a - a
d - d
g - f#
b - a
e - d

Cappo - 4th Fret

h - hammer on
p - pull off

Intro

d ---------0---------0---------0---------0----------7p0----|
a ----9---------9---------9---------9---------9-----9--9---|
f#-------0---0-----0---0-----0---0-----0---0--------0---0--|
d ------9---9-----9---9-----9---9-----9---9---------9------|
a ---------------------------------------------------------|
d ----0---0-----0---0-----0---0-----0---0-----0------------|

Verse

d ------0---------0----------0---------0---------0-------0-------0-------0---|
a -9---------9----------7---------7----------9-------9-------9-------9-------|
f#----0---0-----0---0------0---0-----0---0-----0---0---0---0---0---0---0---9-|
d ---9---9-----9---9------7---7-----7---7-----7---7---7---7---7---7---7---7--|
a -7---7-----7---7-----------------------------------------------------------|
d ----------------------5---5-----5---5------0--0----0--0----0--0----0--0----|


(then one more time with this different ending)


'..I am headin your way with the traffic by my side'

d ------0---------0----------0---------0---------0-------0----------7p0---|
a -9---------9----------7---------7----------9-------9-------9------9--9--|
f#----0---0-----0---0------0---0-----0---0-----0---0---0---0--------0---0-|
d ---9---9-----9---9------7---7-----7---7-----7---7---7---7---------7-----|
a -7---7-----7---7--------------------------------------------------------|
d ----------------------5---5-----5---5------0--0----0--0----0------------|


Chorus

    "Your eyes are wider than before..."
[ Tab from: http://www.guitaretab.com/s/scott-matthews/78654.html ]
d ------0-------0-------0-------0-------0-------0-------0-------0---|
a --4-------4-------4-------4-------9-------9-------9-------9-------|
f#----0---0---0---0---0---0---0---0---0---0---0---0---0---0---0---0-|
d ---0---0---0---0---2---2---2---2---7---7---7---7---7---7---7---7--|
a --2--2----2--2----0--0----0--0------------------------------------|
d ----------------------------------0--0----0--0----0--0----0--0----|

    "...So little has changed but your eyes now see much more"

d ------0-------0---------0-------0--------0-------0---------7p0---|
a --4-------4-------10--------7--------9-------9--------9----9--9--|
f#----0---0---0---0-----0---0---0---0----0---0---0---0-------0---0-|
d ---0---0---0---0-----9---9---7---7----7---7---7---7--------7-----|
a --2--2----2--2----7----7----4--4---------------------------------|
d -------------------------------------0--0----0--0-----0----------|

Verse
Chorus  etc.


    Outro

    "...so much more....so much more..."

d -------0----------------0-------0---|
a ---5-------5---5h7--4-------4-------|
f#-----0---0---0--------0---0---0---0-|  *2
d ----4---4---4--------5---5---5---5--|
a ------------------------------------|
d ---0--0----0---0---0---0----0--0----|


    "...sooooooo so much more"

d -----0--------0--------0--------0--------0----------------0-------0---|
a 10-------10--------7--------7--------5-------5---5h7--4-------4-------|
f#---0---0----0---0----0---0----0---0----0---0---0--------0---0---0---0-|
d --9---9----9---9----7---7----7---7----4---4---4--------5---5---5---5--|
a 7---7----7---7-----4--4-----4--4--------------------------------------|
d -------------------------------------0--0----0---0---0---0----0--0----|


...and so on.

I didn't tab the wee fiddly bit he ends with cos i couldn't be bothered.
There are some variations of what he actually plays but i have just tabbed
the natural way of playing it.
e.g he might take a finger off here and there sometimes or slide a chord
shape down 2 frets but the pickin is
largely all the same.
Related for Eyes Wider Than Before tab
Advertisement will be closed in 10 seconds