Song name
# A B C D E F G H I J K L M N O P Q R S T U V W X Y Z

Screeching Weasel - I Think Were Alone Now tab

Help us improve GuitareTab! Take a short survey!
Tabbed By Matt Shepard
song: I think we're alone now

Verse 
| ------------------------------------------------- | 
| ------------------------------------------------- |  
| -12-12-12-12----------------------12-12-12-12---- | 
| -12-12-12-12-12-12-12-12-10101010-12-12-12-12---- | 
| -10-10-10-10-12-12-12-12-10101010-10-10-10-10---- | 
| -------------10-10-10-10--8-8-8-8---------------- | 

Pre-Chorus 
| ------------------------------------------------------------------------ | 
| ------------------------------------------------------------------------ | 
| -----------999999999-----------999999999-------------------------------- | 
| -999999999-999999999-999999999-999999999-999999999-66666666666666666---- | 
| -999999999-777777777-999999999-777777777-999999999-66666666666666666---- | 
| -777777777-----------777777777-----------777777777-44444444444444444---- | 

Chorus 
| ---------------------------------------------- | 
| ---------------------------------------------- | 
| -11-11-11-11-------------------11-11-11-11---- | 
| -11-11-11-11-11-11-11-11-99999-11-11-11-11---- | 
| --9--9--9--9-11-11-11-11-99999--9--9--9--9---- | 
| --------------9--9--9--9-77777---------------- |
Related for I Think Were Alone Now tab