Song name
# A B C D E F G H I J K L M N O P Q R S T U V W X Y Z

Seasick Steve - Walkin Man tab

Walkin Man by Seasick Steve
from the album I Started Out With Nothing And I've Still Got Most Of It Left
Open D Tuning

INTRO/VERSE
D--3/4-0-----------------|
A------------------------|
Gb-----------------------|
D---------------------0--|
A--------5p0-3p0-----3---|
D----------------5p3-----|

CHORUS 0.34
D---------------------------------------|
A---------------------------------------|
Gb------------0h3-----------------------|
D---------3/4---------------------------|
A--0h3h5----------7-7-7-7\5--5/7-5-5-5--|
D---------------------------------------|

1.28
D--10/12-12-12-12----------|
A-----------------7-5------|
Gb--------------------5-8--|
D--------------------------|
A--------------------------|
D--------------------------|

Any corrections please comment
Thanks
Tap to rate this tab
# A B C D E F G H I J K L M N O P Q R S T U V W X Y Z