Song name
# A B C D E F G H I J K L M N O P Q R S T U V W X Y Z

Seasick Steve - Burnin Up tab

Title: Burnin' Up
Album: You Can't Teach An Old Dog New Tricks
Artist: Seasick Steve
Transcription: Acoustic Guitar Tab
Tuning: Standard E A D G B e 
Tabbed by: A.D.


    
     Oh   I want you                     Yea  I want you
e|------------3----------------------------------5----3---------------------|
B|----3---5------5-------0h3---5----------3---5-------------0h3---5---------|
G|--------------------------------------------------------------------------|
D|--------------------------------------------------------------------------|
A|--------------------------------------------------------------------------|
E|--------------------------------------------------------------------------|


                       I'm Burnin' up                  I'm Burnin' up y'all
e|--------------------------------------------------------------------------|
B|--------------------------------------------------------------------------|
G|---2/4--2h0--------------------------2/4--2h0-----------------------------|
D|--------------2h0--2--------------------------2h0--2----------------------|
A|--------------------------------------------------------------------------|
E|--------------------------------------------------------------------------|
Tap to rate this tab
 
# A B C D E F G H I J K L M N O P Q R S T U V W X Y Z